  0
SECTION
  2
HEADER
  9
$ACADVER
  1
AC1014
  9
$ACADMAINTVER
 70
     9
  9
$DWGCODEPAGE
  3
ANSI_932
  9
$INSBASE
 10
0.0
 20
0.0
 30
0.0
  9
$EXTMIN
 10
-102.617346708309
 20
-66.49999999999997
 30
0.0
  9
$EXTMAX
 10
106.7481882916911
 20
63.99999999999998
 30
0.0
  9
$LIMMIN
 10
-74.25
 20
-52.5
  9
$LIMMAX
 10
74.25
 20
52.5
  9
$ORTHOMODE
 70
     0
  9
$REGENMODE
 70
     1
  9
$FILLMODE
 70
     1
  9
$QTEXTMODE
 70
     0
  9
$MIRRTEXT
 70
     1
  9
$DRAGMODE
 70
     2
  9
$LTSCALE
 40
0.5
  9
$OSMODE
 70
    37
  9
$ATTMODE
 70
     1
  9
$TEXTSIZE
 40
0.2
  9
$TRACEWID
 40
0.05
  9
$TEXTSTYLE
  7
STANDARD
  9
$CLAYER
  8
0
  9
$CELTYPE
  6
BYLAYER
  9
$CECOLOR
 62
   256
  9
$CELTSCALE
 40
1.0
  9
$DELOBJ
 70
     1
  9
$DISPSILH
 70
     0
  9
$DIMSCALE
 40
1.0
  9
$DIMASZ
 40
1.25
  9
$DIMEXO
 40
0.0625
  9
$DIMDLI
 40
0.38
  9
$DIMRND
 40
0.0
  9
$DIMDLE
 40
0.0
  9
$DIMEXE
 40
0.18
  9
$DIMTP
 40
0.0
  9
$DIMTM
 40
0.0
  9
$DIMTXT
 40
0.18
  9
$DIMCEN
 40
0.09
  9
$DIMTSZ
 40
0.0
  9
$DIMTOL
 70
     0
  9
$DIMLIM
 70
     0
  9
$DIMTIH
 70
     1
  9
$DIMTOH
 70
     1
  9
$DIMSE1
 70
     0
  9
$DIMSE2
 70
     0
  9
$DIMTAD
 70
     3
  9
$DIMZIN
 70
     0
  9
$DIMBLK
  1

  9
$DIMASO
 70
     1
  9
$DIMSHO
 70
     1
  9
$DIMPOST
  1

  9
$DIMAPOST
  1

  9
$DIMALT
 70
     0
  9
$DIMALTD
 70
     2
  9
$DIMALTF
 40
25.4
  9
$DIMLFAC
 40
1.0
  9
$DIMTOFL
 70
     0
  9
$DIMTVP
 40
0.0
  9
$DIMTIX
 70
     0
  9
$DIMSOXD
 70
     0
  9
$DIMSAH
 70
     0
  9
$DIMBLK1
  1

  9
$DIMBLK2
  1

  9
$DIMSTYLE
  2
STANDARD
  9
$DIMCLRD
 70
     0
  9
$DIMCLRE
 70
     0
  9
$DIMCLRT
 70
     0
  9
$DIMTFAC
 40
1.0
  9
$DIMGAP
 40
0.09
  9
$DIMJUST
 70
     0
  9
$DIMSD1
 70
     0
  9
$DIMSD2
 70
     0
  9
$DIMTOLJ
 70
     1
  9
$DIMTZIN
 70
     0
  9
$DIMALTZ
 70
     0
  9
$DIMALTTZ
 70
     0
  9
$DIMFIT
 70
     3
  9
$DIMUPT
 70
     0
  9
$DIMUNIT
 70
     2
  9
$DIMDEC
 70
     4
  9
$DIMTDEC
 70
     4
  9
$DIMALTU
 70
     2
  9
$DIMALTTD
 70
     2
  9
$DIMTXSTY
  7
STANDARD
  9
$DIMAUNIT
 70
     0
  9
$LUNITS
 70
     2
  9
$LUPREC
 70
     4
  9
$SKETCHINC
 40
0.1
  9
$FILLETRAD
 40
0.5
  9
$AUNITS
 70
     0
  9
$AUPREC
 70
     0
  9
$MENU
  1
.
  9
$ELEVATION
 40
0.0
  9
$PELEVATION
 40
0.0
  9
$THICKNESS
 40
0.0
  9
$LIMCHECK
 70
     0
  9
$CHAMFERA
 40
0.5
  9
$CHAMFERB
 40
0.5
  9
$CHAMFERC
 40
1.0
  9
$CHAMFERD
 40
0.0
  9
$SKPOLY
 70
     0
  9
$TDCREATE
 40
2457961.391345695
  9
$TDUPDATE
 40
2457961.391345706
  9
$TDINDWG
 40
0.0000000116
  9
$TDUSRTIMER
 40
0.0000000116
  9
$USRTIMER
 70
     1
  9
$ANGBASE
 50
0.0
  9
$ANGDIR
 70
     0
  9
$PDMODE
 70
     0
  9
$PDSIZE
 40
1.0
  9
$PLINEWID
 40
0.0
  9
$COORDS
 70
     1
  9
$SPLFRAME
 70
     0
  9
$SPLINETYPE
 70
     6
  9
$SPLINESEGS
 70
     8
  9
$ATTDIA
 70
     0
  9
$ATTREQ
 70
     1
  9
$HANDLING
 70
     1
  9
$HANDSEED
  5
170
  9
$SURFTAB1
 70
     6
  9
$SURFTAB2
 70
     6
  9
$SURFTYPE
 70
     6
  9
$SURFU
 70
     6
  9
$SURFV
 70
     6
  9
$UCSNAME
  2

  9
$UCSORG
 10
0.0
 20
0.0
 30
0.0
  9
$UCSXDIR
 10
1.0
 20
0.0
 30
0.0
  9
$UCSYDIR
 10
0.0
 20
1.0
 30
0.0
  9
$PUCSNAME
  2

  9
$PUCSORG
 10
0.0
 20
0.0
 30
0.0
  9
$PUCSXDIR
 10
1.0
 20
0.0
 30
0.0
  9
$PUCSYDIR
 10
0.0
 20
1.0
 30
0.0
  9
$USERI1
 70
     0
  9
$USERI2
 70
     0
  9
$USERI3
 70
     0
  9
$USERI4
 70
     0
  9
$USERI5
 70
     0
  9
$USERR1
 40
0.0
  9
$USERR2
 40
0.0
  9
$USERR3
 40
0.0
  9
$USERR4
 40
0.0
  9
$USERR5
 40
0.0
  9
$WORLDVIEW
 70
     1
  9
$SHADEDGE
 70
     3
  9
$SHADEDIF
 70
    70
  9
$TILEMODE
 70
     1
  9
$MAXACTVP
 70
    64
  9
$PINSBASE
 10
0.0
 20
0.0
 30
0.0
  9
$PLIMCHECK
 70
     0
  9
$PEXTMIN
 10
1.000000000000000E+20
 20
1.000000000000000E+20
 30
1.000000000000000E+20
  9
$PEXTMAX
 10
-1.000000000000000E+20
 20
-1.000000000000000E+20
 30
-1.000000000000000E+20
  9
$PLIMMIN
 10
0.0
 20
0.0
  9
$PLIMMAX
 10
12.0
 20
9.0
  9
$UNITMODE
 70
     0
  9
$VISRETAIN
 70
     0
  9
$PLINEGEN
 70
     1
  9
$PSLTSCALE
 70
     0
  9
$TREEDEPTH
 70
  3020
  9
$PICKSTYLE
 70
     1
  9
$CMLSTYLE
  2
STANDARD
  9
$CMLJUST
 70
     0
  9
$CMLSCALE
 40
1.0
  9
$PROXYGRAPHICS
 70
     0
  9
$MEASUREMENT
 70
     1
  0
ENDSEC
  0
SECTION
  2
CLASSES
  0
CLASS
  1
ACDBDICTIONARYWDFLT
  2
AcDbDictionaryWithDefault
  3
ObjectDBX Classes
 90
        0
280
     0
281
     0
  0
CLASS
  1
XRECORD
  2
AcDbXrecord
  3
AutoCAD 2000
 90
        0
280
     0
281
     0
  0
CLASS
  1
LWPOLYLINE
  2
AcDbPolyline
  3
AutoCAD 2000
 90
        0
280
     0
281
     1
  0
CLASS
  1
HATCH
  2
AcDbHatch
  3
AutoCAD 2000
 90
        0
280
     0
281
     1
  0
CLASS
  1
ACDBPLACEHOLDER
  2
AcDbPlaceHolder
  3
ObjectDBX Classes
 90
        0
280
     0
281
     0
  0
CLASS
  1
LAYOUT
  2
AcDbLayout
  3
ObjectDBX Classes
 90
        0
280
     0
281
     0
  0
ENDSEC
  0
SECTION
  2
TABLES
  0
TABLE
  2
VPORT
  5
8
330
0
100
AcDbSymbolTable
 70
     1
  0
VPORT
  5
29
330
8
100
AcDbSymbolTableRecord
100
AcDbViewportTableRecord
  2
*ACTIVE
 70
     0
 10
0.0
 20
0.0
 11
1.0
 21
1.0
 12
0.0
 22
0.0
 13
0.0
 23
0.0
 14
0.5
 24
0.5
 15
0.5
 25
0.5
 16
0.0
 26
0.0
 36
1.0
 17
1.334309958357704
 27
-0.25
 37
0.0
 40
46.40999999999999
 41
1.501676703296704
 42
50.0
 43
0.0
 44
0.0
 50
0.0
 51
0.0
 71
     0
 72
  1000
 73
     1
 74
     1
 75
     0
 76
     0
 77
     0
 78
     0
  0
ENDTAB
  0
TABLE
  2
LTYPE
  5
5
330
0
100
AcDbSymbolTable
 70
    28
  0
LTYPE
  5
14
330
5
100
AcDbSymbolTableRecord
100
AcDbLinetypeTableRecord
  2
BYBLOCK
 70
     0
  3

 72
    65
 73
     0
 40
0.0
  0
LTYPE
  5
15
330
5
100
AcDbSymbolTableRecord
100
AcDbLinetypeTableRecord
  2
BYLAYER
 70
     0
  3

 72
    65
 73
     0
 40
0.0
  0
LTYPE
  5
16
330
5
100
AcDbSymbolTableRecord
100
AcDbLinetypeTableRecord
  2
CONTINUOUS
 70
     0
  3
Solid line
 72
    65
 73
     0
 40
0.0
  0
LTYPE
  5
2B
330
5
100
AcDbSymbolTableRecord
100
AcDbLinetypeTableRecord
  2
HIDDENX2
 70
     0
  3
CADPAC LINETYPE
 72
    65
 73
     2
 40
4.525862068965466
 49
3.3943965517241
 74
     0
 49
-1.131465517241367
 74
     0
  0
LTYPE
  5
2C
330
5
100
AcDbSymbolTableRecord
100
AcDbLinetypeTableRecord
  2
HIDDEN
 70
     0
  3
CADPAC LINETYPE
 72
    65
 73
     2
 40
3.3943965517241
 49
2.262931034482733
 74
     0
 49
-1.131465517241367
 74
     0
  0
LTYPE
  5
2D
330
5
100
AcDbSymbolTableRecord
100
AcDbLinetypeTableRecord
  2
HIDDEN2
 70
     0
  3
CADPAC LINETYPE
 72
    65
 73
     2
 40
2.828663793103416
 49
1.69719827586205
 74
     0
 49
-1.131465517241367
 74
     0
  0
LTYPE
  5
2E
330
5
100
AcDbSymbolTableRecord
100
AcDbLinetypeTableRecord
  2
DASHED
 70
     0
  3
CADPAC LINETYPE
 72
    65
 73
     2
 40
3.168103448275815
 49
2.262931034482733
 74
     0
 49
-0.9051724137930819
 74
     0
  0
LTYPE
  5
2F
330
5
100
AcDbSymbolTableRecord
100
AcDbLinetypeTableRecord
  2
DASHED2
 70
     0
  3
CADPAC LINETYPE
 72
    65
 73
     2
 40
2.03663793103442
 49
1.357758620689623
 74
     0
 49
-0.6788793103447972
 74
     0
  0
LTYPE
  5
30
330
5
100
AcDbSymbolTableRecord
100
AcDbLinetypeTableRecord
  2
DASHEDX2
 70
     0
  3
CADPAC LINETYPE
 72
    65
 73
     2
 40
5.431034482758548
 49
4.525862068965466
 74
     0
 49
-0.9051724137930819
 74
     0
  0
LTYPE
  5
31
330
5
100
AcDbSymbolTableRecord
100
AcDbLinetypeTableRecord
  2
DOTX2
 70
     0
  3
CADPAC LINETYPE
 72
    65
 73
     2
 40
1.980064655172384
 49
0.0
 74
     0
 49
-1.980064655172384
 74
     0
  0
LTYPE
  5
32
330
5
100
AcDbSymbolTableRecord
100
AcDbLinetypeTableRecord
  2
DOT
 70
     0
  3
CADPAC LINETYPE
 72
    65
 73
     2
 40
1.584051724137908
 49
0.0
 74
     0
 49
-1.584051724137908
 74
     0
  0
LTYPE
  5
33
330
5
100
AcDbSymbolTableRecord
100
AcDbLinetypeTableRecord
  2
DOT2
 70
     0
  3
CADPAC LINETYPE
 72
    65
 73
     2
 40
1.188038793103431
 49
0.0
 74
     0
 49
-1.188038793103431
 74
     0
  0
LTYPE
  5
34
330
5
100
AcDbSymbolTableRecord
100
AcDbLinetypeTableRecord
  2
CENTERX2
 70
     0
  3
CADPAC LINETYPE
 72
    65
 73
     4
 40
6.788793103448199
 49
2.828663793103416
 74
     0
 49
-1.414331896551708
 74
     0
 49
1.131465517241367
 74
     0
 49
-1.414331896551708
 74
     0
  0
LTYPE
  5
35
330
5
100
AcDbSymbolTableRecord
100
AcDbLinetypeTableRecord
  2
CENTER
 70
     0
  3
CADPAC LINETYPE
 72
    65
 73
     4
 40
5.204741379310287
 49
2.262931034482733
 74
     0
 49
-1.131465517241367
 74
     0
 49
0.67887931034482
 74
     0
 49
-1.131465517241367
 74
     0
  0
LTYPE
  5
36
330
5
100
AcDbSymbolTableRecord
100
AcDbLinetypeTableRecord
  2
CENTER2
 70
     0
  3
CADPAC LINETYPE
 72
    65
 73
     4
 40
3.620689655172373
 49
1.69719827586205
 74
     0
 49
-0.8485991379310249
 74
     0
 49
0.2262931034482733
 74
     0
 49
-0.8485991379310249
 74
     0
  0
LTYPE
  5
37
330
5
100
AcDbSymbolTableRecord
100
AcDbLinetypeTableRecord
  2
DASHDOTX2
 70
     0
  3
CADPAC LINETYPE
 72
    65
 73
     4
 40
10.86206896551718
 49
5.431034482758605
 74
     0
 49
-1.810344827586192
 74
     0
 49
1.810344827586192
 74
     0
 49
-1.810344827586192
 74
     0
  0
LTYPE
  5
38
330
5
100
AcDbSymbolTableRecord
100
AcDbLinetypeTableRecord
  2
DASHDOT
 70
     0
  3
CADPAC LINETYPE
 72
    65
 73
     4
 40
5.43103448275852
 49
2.715517241379274
 74
     0
 49
-0.9051724137930819
 74
     0
 49
0.9051724137930819
 74
     0
 49
-0.9051724137930819
 74
     0
  0
LTYPE
  5
39
330
5
100
AcDbSymbolTableRecord
100
AcDbLinetypeTableRecord
  2
DASHDOT2
 70
     0
  3
CADPAC LINETYPE
 72
    65
 73
     4
 40
3.484913793103387
 49
2.036637931034456
 74
     0
 49
-0.6788793103448114
 74
     0
 49
0.0905172413793082
 74
     0
 49
-0.6788793103448114
 74
     0
  0
LTYPE
  5
3A
330
5
100
AcDbSymbolTableRecord
100
AcDbLinetypeTableRecord
  2
DIVIDEX2
 70
     0
  3
CADPAC LINETYPE
 72
    65
 73
     6
 40
14.48275862068957
 49
5.431034482758605
 74
     0
 49
-1.810344827586192
 74
     0
 49
1.810344827586192
 74
     0
 49
-1.810344827586192
 74
     0
 49
1.810344827586192
 74
     0
 49
-1.810344827586192
 74
     0
  0
LTYPE
  5
3B
330
5
100
AcDbSymbolTableRecord
100
AcDbLinetypeTableRecord
  2
DIVIDE
 70
     0
  3
CADPAC LINETYPE
 72
    65
 73
     6
 40
7.241379310344684
 49
2.715517241379274
 74
     0
 49
-0.9051724137930819
 74
     0
 49
0.9051724137930819
 74
     0
 49
-0.9051724137930819
 74
     0
 49
0.9051724137930819
 74
     0
 49
-0.9051724137930819
 74
     0
  0
LTYPE
  5
3C
330
5
100
AcDbSymbolTableRecord
100
AcDbLinetypeTableRecord
  2
DIVIDE2
 70
     0
  3
CADPAC LINETYPE
 72
    65
 73
     6
 40
5.431034482758513
 49
2.036637931034456
 74
     0
 49
-0.6788793103448114
 74
     0
 49
0.6788793103448114
 74
     0
 49
-0.6788793103448114
 74
     0
 49
0.6788793103448114
 74
     0
 49
-0.6788793103448114
 74
     0
  0
LTYPE
  5
3D
330
5
100
AcDbSymbolTableRecord
100
AcDbLinetypeTableRecord
  2
BORDERX2
 70
     0
  3
CADPAC LINETYPE
 72
    65
 73
     6
 40
9.900323275861958
 49
2.828663793103416
 74
     0
 49
-1.414331896551708
 74
     0
 49
2.828663793103416
 74
     0
 49
-1.414331896551708
 74
     0
 49
0.0
 74
     0
 49
-1.414331896551708
 74
     0
  0
LTYPE
  5
3E
330
5
100
AcDbSymbolTableRecord
100
AcDbLinetypeTableRecord
  2
BORDER
 70
     0
  3
CADPAC LINETYPE
 72
    65
 73
     6
 40
7.920258620689566
 49
2.262931034482733
 74
     0
 49
-1.131465517241367
 74
     0
 49
2.262931034482733
 74
     0
 49
-1.131465517241367
 74
     0
 49
0.0
 74
     0
 49
-1.131465517241367
 74
     0
  0
LTYPE
  5
3F
330
5
100
AcDbSymbolTableRecord
100
AcDbLinetypeTableRecord
  2
BORDER2
 70
     0
  3
CADPAC LINETYPE
 72
    65
 73
     6
 40
5.883620689655032
 49
1.810344827586192
 74
     0
 49
-1.131465517241338
 74
     0
 49
0.6788793103447972
 74
     0
 49
-1.131465517241338
 74
     0
 49
0.0
 74
     0
 49
-1.131465517241367
 74
     0
  0
LTYPE
  5
40
330
5
100
AcDbSymbolTableRecord
100
AcDbLinetypeTableRecord
  2
PHANTOMX2
 70
     0
  3
CADPAC LINETYPE
 72
    65
 73
     6
 40
8.485991379310249
 49
2.828663793103416
 74
     0
 49
-1.131465517241367
 74
     0
 49
1.131465517241367
 74
     0
 49
-1.131465517241367
 74
     0
 49
1.131465517241367
 74
     0
 49
-1.131465517241367
 74
     0
  0
LTYPE
  5
41
330
5
100
AcDbSymbolTableRecord
100
AcDbLinetypeTableRecord
  2
PHANTOM
 70
     0
  3
CADPAC LINETYPE
 72
    65
 73
     6
 40
7.015086206896473
 49
2.262931034482733
 74
     0
 49
-1.131465517241367
 74
     0
 49
0.67887931034482
 74
     0
 49
-1.131465517241367
 74
     0
 49
0.67887931034482
 74
     0
 49
-1.131465517241367
 74
     0
  0
LTYPE
  5
42
330
5
100
AcDbSymbolTableRecord
100
AcDbLinetypeTableRecord
  2
PHANTOM2
 70
     0
  3
CADPAC LINETYPE
 72
    65
 73
     6
 40
5.996767241379242
 49
1.69719827586205
 74
     0
 49
-1.131465517241367
 74
     0
 49
0.4525862068965467
 74
     0
 49
-1.131465517241367
 74
     0
 49
0.4525862068965467
 74
     0
 49
-1.131465517241367
 74
     0
  0
LTYPE
  5
43
330
5
100
AcDbSymbolTableRecord
100
AcDbLinetypeTableRecord
  2
ACAD_ISO06W100
 70
     0
  3
CADPAC LINETYPE
 72
    65
 73
     8
 40
11.99353448275835
 49
5.431034482758605
 74
     0
 49
-1.131465517241338
 74
     0
 49
0.6788793103447972
 74
     0
 49
-1.131465517241338
 74
     0
 49
0.6788793103447972
 74
     0
 49
-1.131465517241338
 74
     0
 49
0.6788793103447972
 74
     0
 49
-1.131465517241338
 74
     0
  0
LTYPE
  5
44
330
5
100
AcDbSymbolTableRecord
100
AcDbLinetypeTableRecord
  2
ACAD_ISO13W100
 70
     0
  3
CADPAC LINETYPE
 72
    65
 73
     8
 40
9.051724137930933
 49
2.262931034482733
 74
     0
 49
-1.131465517241367
 74
     0
 49
2.262931034482733
 74
     0
 49
-1.131465517241367
 74
     0
 49
0.0
 74
     0
 49
-1.131465517241367
 74
     0
 49
0.0
 74
     0
 49
-1.131465517241367
 74
     0
  0
LTYPE
  5
45
330
5
100
AcDbSymbolTableRecord
100
AcDbLinetypeTableRecord
  2
ACAD_ISO14W100
 70
     0
  3
CADPAC LINETYPE
 72
    65
 73
     8
 40
6.788793103448199
 49
2.262931034482733
 74
     0
 49
-1.131465517241367
 74
     0
 49
0.0
 74
     0
 49
-1.131465517241367
 74
     0
 49
0.0
 74
     0
 49
-1.131465517241367
 74
     0
 49
0.0
 74
     0
 49
-1.131465517241367
 74
     0
  0
ENDTAB
  0
TABLE
  2
LAYER
  5
2
330
0
100
AcDbSymbolTable
 70
     2
  0
LAYER
  5
10
330
2
100
AcDbSymbolTableRecord
100
AcDbLayerTableRecord
  2
0
 70
     0
 62
     7
  6
CONTINUOUS
  0
LAYER
  5
46
330
2
100
AcDbSymbolTableRecord
100
AcDbLayerTableRecord
  2
LAYER0001
 70
     0
 62
     7
  6
CONTINUOUS
  0
ENDTAB
  0
TABLE
  2
STYLE
  5
3
330
0
100
AcDbSymbolTable
 70
     2
  0
STYLE
  5
11
330
3
100
AcDbSymbolTableRecord
100
AcDbTextStyleTableRecord
  2
STANDARD
 70
     0
 40
0.0
 41
1.0
 50
0.0
 71
     0
 42
0.2
  3
txt
  4

  0
STYLE
  5
82
330
3
100
AcDbSymbolTableRecord
100
AcDbTextStyleTableRecord
  2
FDASTYLE0
 70
     0
 40
2.0
 41
0.7272727272727272
 50
0.0
 71
     0
 42
0.2
  3
txt.shx
  4
bigfont
  0
ENDTAB
  0
TABLE
  2
VIEW
  5
6
330
0
100
AcDbSymbolTable
 70
     0
  0
ENDTAB
  0
TABLE
  2
UCS
  5
7
330
0
100
AcDbSymbolTable
 70
     0
  0
ENDTAB
  0
TABLE
  2
APPID
  5
9
330
0
100
AcDbSymbolTable
 70
     2
  0
APPID
  5
12
330
9
100
AcDbSymbolTableRecord
100
AcDbRegAppTableRecord
  2
ACAD
 70
     0
  0
APPID
  5
2A
330
9
100
AcDbSymbolTableRecord
100
AcDbRegAppTableRecord
  2
DAFUSIONOUT
 70
     0
  0
ENDTAB
  0
TABLE
  2
DIMSTYLE
  5
A
330
0
100
AcDbSymbolTable
 70
     1
  0
DIMSTYLE
105
27
330
A
100
AcDbSymbolTableRecord
100
AcDbDimStyleTableRecord
  2
STANDARD
 70
     0
  3

  4

  5

  6

  7

 40
1.0
 41
0.18
 42
0.0625
 43
0.38
 44
0.18
 45
0.0
 46
0.0
 47
0.0
 48
0.0
140
0.18
141
0.09
142
0.0
143
25.4
144
1.0
145
0.0
146
1.0
147
0.09
 71
     0
 72
     0
 73
     1
 74
     1
 75
     0
 76
     0
 77
     0
 78
     0
170
     0
171
     2
172
     0
173
     0
174
     0
175
     0
176
     0
177
     0
178
     0
270
     2
271
     4
272
     4
273
     2
274
     2
340
11
275
     0
280
     0
281
     0
282
     0
283
     1
284
     0
285
     0
286
     0
287
     3
288
     0
  0
ENDTAB
  0
TABLE
  2
BLOCK_RECORD
  5
1
330
0
100
AcDbSymbolTable
 70
    17
  0
BLOCK_RECORD
  5
1F
330
1
100
AcDbSymbolTableRecord
100
AcDbBlockTableRecord
  2
*MODEL_SPACE
  0
BLOCK_RECORD
  5
1B
330
1
100
AcDbSymbolTableRecord
100
AcDbBlockTableRecord
  2
*PAPER_SPACE
  0
BLOCK_RECORD
  5
48
330
1
100
AcDbSymbolTableRecord
100
AcDbBlockTableRecord
  2
DA_IMAGEDIMGROUP_1
  0
BLOCK_RECORD
  5
4B
330
1
100
AcDbSymbolTableRecord
100
AcDbBlockTableRecord
  2
DA_IMAGEDIMGROUP_2
  0
BLOCK_RECORD
  5
4E
330
1
100
AcDbSymbolTableRecord
100
AcDbBlockTableRecord
  2
DA_IMAGEDIMGROUP_3
  0
BLOCK_RECORD
  5
51
330
1
100
AcDbSymbolTableRecord
100
AcDbBlockTableRecord
  2
DA_IMAGEDIMGROUP_4
  0
BLOCK_RECORD
  5
54
330
1
100
AcDbSymbolTableRecord
100
AcDbBlockTableRecord
  2
DA_IMAGEDIMGROUP_5
  0
BLOCK_RECORD
  5
57
330
1
100
AcDbSymbolTableRecord
100
AcDbBlockTableRecord
  2
DA_IMAGEDIMGROUP_6
  0
BLOCK_RECORD
  5
5A
330
1
100
AcDbSymbolTableRecord
100
AcDbBlockTableRecord
  2
DA_IMAGEDIMGROUP_7
  0
BLOCK_RECORD
  5
5D
330
1
100
AcDbSymbolTableRecord
100
AcDbBlockTableRecord
  2
DA_IMAGEDIMGROUP_8
  0
BLOCK_RECORD
  5
60
330
1
100
AcDbSymbolTableRecord
100
AcDbBlockTableRecord
  2
DA_IMAGEDIMGROUP_9
  0
BLOCK_RECORD
  5
63
330
1
100
AcDbSymbolTableRecord
100
AcDbBlockTableRecord
  2
DA_IMAGEDIMGROUP_10
  0
BLOCK_RECORD
  5
66
330
1
100
AcDbSymbolTableRecord
100
AcDbBlockTableRecord
  2
DA_IMAGEDIMGROUP_11
  0
BLOCK_RECORD
  5
69
330
1
100
AcDbSymbolTableRecord
100
AcDbBlockTableRecord
  2
DA_IMAGEDIMGROUP_12
  0
BLOCK_RECORD
  5
6C
330
1
100
AcDbSymbolTableRecord
100
AcDbBlockTableRecord
  2
DA_IMAGEDIMGROUP_13
  0
BLOCK_RECORD
  5
6F
330
1
100
AcDbSymbolTableRecord
100
AcDbBlockTableRecord
  2
DC_GROUP_1
  0
BLOCK_RECORD
  5
72
330
1
100
AcDbSymbolTableRecord
100
AcDbBlockTableRecord
  2
DC_GROUP_2
  0
BLOCK_RECORD
  5
79
330
1
100
AcDbSymbolTableRecord
100
AcDbBlockTableRecord
  2
_OPEN30
  0
ENDTAB
  0
ENDSEC
  0
SECTION
  2
BLOCKS
  0
BLOCK
  5
20
330
1F
100
AcDbEntity
  8
0
100
AcDbBlockBegin
  2
*MODEL_SPACE
 70
     0
 71
     0
 10
0.0
 20
0.0
 30
0.0
  3
*MODEL_SPACE
  1

  0
ENDBLK
  5
21
330
1F
100
AcDbEntity
  8
0
100
AcDbBlockEnd
  0
BLOCK
  5
1C
330
1B
100
AcDbEntity
 67
     1
  8
0
100
AcDbBlockBegin
  2
*PAPER_SPACE
 70
     0
 71
     0
 10
0.0
 20
0.0
 30
0.0
  3
*PAPER_SPACE
  1

  0
ENDBLK
  5
1D
330
1B
100
AcDbEntity
 67
     1
  8
0
100
AcDbBlockEnd
  0
BLOCK
  5
49
330
48
100
AcDbEntity
  8
0
100
AcDbBlockBegin
  2
DA_IMAGEDIMGROUP_1
 70
     0
 71
     0
 10
0.0
 20
0.0
 30
0.0
  3
DA_IMAGEDIMGROUP_1
  1

  0
LINE
  5
75
330
48
100
AcDbEntity
  8
0
  6
CONTINUOUS
 62
     9
100
AcDbLine
 10
27.28856495835771
 20
-7.000000000000002
 30
0.0
 11
31.28856495835771
 21
-7.000000000000002
 31
0.0
  0
LINE
  5
76
330
48
100
AcDbEntity
  8
0
  6
CONTINUOUS
 62
     9
100
AcDbLine
 10
27.28856495835771
 20
-1.000000000000002
 30
0.0
 11
31.28856495835771
 21
-1.000000000000002
 31
0.0
  0
LINE
  5
77
330
48
100
AcDbEntity
  8
0
  6
CONTINUOUS
 62
     9
100
AcDbLine
 10
30.78856495835771
 20
-7.000000000000002
 30
0.0
 11
30.78856495835771
 21
-1.000000000000002
 31
0.0
  0
LINE
  5
78
330
48
100
AcDbEntity
  8
0
  6
CONTINUOUS
 62
     9
100
AcDbLine
 10
30.78856495835771
 20
11.38889
 30
0.0
 11
30.78856495835771
 21
-1.000000000000002
 31
0.0
  0
INSERT
  5
7F
330
48
100
AcDbEntity
  8
0
 62
     9
100
AcDbBlockReference
  2
_OPEN30
 10
30.78856495835771
 20
-1.000000000000002
 30
0.0
 41
1.500001393912182
 42
1.499994636989232
 50
270.0
  0
LINE
  5
80
330
48
100
AcDbEntity
  8
0
  6
CONTINUOUS
 62
     9
100
AcDbLine
 10
30.78856495835771
 20
-9.500000000000002
 30
0.0
 11
30.78856495835771
 21
-7.000000000000002
 31
0.0
  0
INSERT
  5
81
330
48
100
AcDbEntity
  8
0
 62
     9
100
AcDbBlockReference
  2
_OPEN30
 10
30.78856495835771
 20
-7.000000000000002
 30
0.0
 41
1.500001393912182
 42
1.499994636989232
 50
90.0
  0
TEXT
  5
83
330
48
100
AcDbEntity
  8
0
 62
     7
100
AcDbText
 10
30.28856495835771
 20
0.9488899999999982
 30
0.0
 40
2.0
  1
φ6
 50
90.0
 41
0.7272727272727272
  7
FDASTYLE0
 72
     5
 11
30.28856495835771
 21
4.148889999999998
 31
0.0
100
AcDbText
  0
TEXT
  5
84
330
48
100
AcDbEntity
  8
0
 62
     7
100
AcDbText
 10
28.98856495835771
 20
4.648889999999998
 30
0.0
 40
1.3
  1
+0.020
 50
90.0
 41
0.7999999999999997
  7
FDASTYLE0
 72
     5
 11
28.98856495835771
 21
10.88889
 31
0.0
100
AcDbText
  0
TEXT
  5
85
330
48
100
AcDbEntity
  8
0
 62
     7
100
AcDbText
 10
30.38856495835771
 20
4.648889999999998
 30
0.0
 40
1.3
  1
+0.005
 50
90.0
 41
0.7999999999999997
  7
FDASTYLE0
 72
     5
 11
30.38856495835771
 21
10.88889
 31
0.0
100
AcDbText
  0
ENDBLK
  5
4A
330
48
100
AcDbEntity
  8
0
100
AcDbBlockEnd
  0
BLOCK
  5
4C
330
4B
100
AcDbEntity
  8
0
100
AcDbBlockBegin
  2
DA_IMAGEDIMGROUP_2
 70
     0
 71
     0
 10
0.0
 20
0.0
 30
0.0
  3
DA_IMAGEDIMGROUP_2
  1

  0
LINE
  5
86
330
4B
100
AcDbEntity
  8
0
  6
CONTINUOUS
 62
     9
100
AcDbLine
 10
24.74856495835771
 20
-7.999999999999995
 30
0.0
 11
35.28856495835771
 21
-7.999999999999995
 31
0.0
  0
LINE
  5
87
330
4B
100
AcDbEntity
  8
0
  6
CONTINUOUS
 62
     9
100
AcDbLine
 10
24.74856495835771
 20
-0.0000000000000053
 30
0.0
 11
35.28856495835771
 21
-0.0000000000000053
 31
0.0
  0
LINE
  5
88
330
4B
100
AcDbEntity
  8
0
  6
CONTINUOUS
 62
     9
100
AcDbLine
 10
34.78856495835771
 20
-7.999999999999995
 30
0.0
 11
34.78856495835771
 21
-0.0000000000000053
 31
0.0
  0
INSERT
  5
89
330
4B
100
AcDbEntity
  8
0
 62
     9
100
AcDbBlockReference
  2
_OPEN30
 10
34.78856495835771
 20
-7.999999999999995
 30
0.0
 41
1.500001393912182
 42
1.499994636989232
 50
270.0
  0
INSERT
  5
8A
330
4B
100
AcDbEntity
  8
0
 62
     9
100
AcDbBlockReference
  2
_OPEN30
 10
34.78856495835771
 20
-0.0000000000000053
 30
0.0
 41
1.500001393912182
 42
1.499994636989232
 50
90.0
  0
TEXT
  5
8B
330
4B
100
AcDbEntity
  8
0
 62
     7
100
AcDbText
 10
34.28856495835771
 20
-5.600000000000001
 30
0.0
 40
2.0
  1
φ8
 50
90.0
 41
0.7272727272727279
  7
FDASTYLE0
 72
     5
 11
34.28856495835771
 21
-2.399999999999999
 31
0.0
100
AcDbText
  0
ENDBLK
  5
4D
330
4B
100
AcDbEntity
  8
0
100
AcDbBlockEnd
  0
BLOCK
  5
4F
330
4E
100
AcDbEntity
  8
0
100
AcDbBlockBegin
  2
DA_IMAGEDIMGROUP_3
 70
     0
 71
     0
 10
0.0
 20
0.0
 30
0.0
  3
DA_IMAGEDIMGROUP_3
  1

  0
LINE
  5
8C
330
4E
100
AcDbEntity
  8
0
  6
CONTINUOUS
 62
     9
100
AcDbLine
 10
26.78856495835771
 20
-8.4
 30
0.0
 11
26.78856495835771
 21
-12.5
 31
0.0
  0
LINE
  5
8D
330
4E
100
AcDbEntity
  8
0
  6
CONTINUOUS
 62
     9
100
AcDbLine
 10
25.68856495835771
 20
-7.500000000000002
 30
0.0
 11
25.68856495835771
 21
-12.5
 31
0.0
  0
LINE
  5
8E
330
4E
100
AcDbEntity
  8
0
  6
CONTINUOUS
 62
     9
100
AcDbLine
 10
25.68856495835771
 20
-12.0
 30
0.0
 11
26.78856495835771
 21
-12.0
 31
0.0
  0
LINE
  5
8F
330
4E
100
AcDbEntity
  8
0
  6
CONTINUOUS
 62
     9
100
AcDbLine
 10
34.03745495835771
 20
-12.0
 30
0.0
 11
26.78856495835771
 21
-12.0
 31
0.0
  0
INSERT
  5
90
330
4E
100
AcDbEntity
  8
0
 62
     9
100
AcDbBlockReference
  2
_OPEN30
 10
26.78856495835771
 20
-12.0
 30
0.0
 41
1.500001393912182
 42
1.499994636989232
 50
180.0
  0
LINE
  5
91
330
4E
100
AcDbEntity
  8
0
  6
CONTINUOUS
 62
     9
100
AcDbLine
 10
23.18856495835771
 20
-12.0
 30
0.0
 11
25.68856495835771
 21
-12.0
 31
0.0
  0
INSERT
  5
92
330
4E
100
AcDbEntity
  8
0
 62
     9
100
AcDbBlockReference
  2
_OPEN30
 10
25.68856495835771
 20
-12.0
 30
0.0
 41
1.500001393912182
 42
1.499994636989232
 50
360.0
  0
TEXT
  5
93
330
4E
100
AcDbEntity
  8
0
 62
     7
100
AcDbText
 10
28.73745495835771
 20
-11.5
 30
0.0
 40
2.0
  1
1.1
 41
0.8000000000000007
  7
FDASTYLE0
 72
     5
 11
33.53745495835771
 21
-11.5
 31
0.0
100
AcDbText
  0
ENDBLK
  5
50
330
4E
100
AcDbEntity
  8
0
100
AcDbBlockEnd
  0
BLOCK
  5
52
330
51
100
AcDbEntity
  8
0
100
AcDbBlockBegin
  2
DA_IMAGEDIMGROUP_4
 70
     0
 71
     0
 10
0.0
 20
0.0
 30
0.0
  3
DA_IMAGEDIMGROUP_4
  1

  0
LINE
  5
94
330
51
100
AcDbEntity
  8
0
  6
CONTINUOUS
 62
     9
100
AcDbLine
 10
26.78856495835771
 20
-8.4
 30
0.0
 11
26.78856495835771
 21
-16.49999999999999
 31
0.0
  0
LINE
  5
95
330
51
100
AcDbEntity
  8
0
  6
CONTINUOUS
 62
     9
100
AcDbLine
 10
24.48856495835771
 20
-7.250000000000002
 30
0.0
 11
24.48856495835771
 21
-16.49999999999999
 31
0.0
  0
LINE
  5
96
330
51
100
AcDbEntity
  8
0
  6
CONTINUOUS
 62
     9
100
AcDbLine
 10
24.48856495835771
 20
-16.0
 30
0.0
 11
26.78856495835771
 21
-16.0
 31
0.0
  0
LINE
  5
97
330
51
100
AcDbEntity
  8
0
  6
CONTINUOUS
 62
     9
100
AcDbLine
 10
34.03745495835771
 20
-16.0
 30
0.0
 11
26.78856495835771
 21
-16.0
 31
0.0
  0
INSERT
  5
98
330
51
100
AcDbEntity
  8
0
 62
     9
100
AcDbBlockReference
  2
_OPEN30
 10
26.78856495835771
 20
-16.0
 30
0.0
 41
1.500001393912182
 42
1.499994636989232
 50
180.0
  0
LINE
  5
99
330
51
100
AcDbEntity
  8
0
  6
CONTINUOUS
 62
     9
100
AcDbLine
 10
21.98856495835771
 20
-16.0
 30
0.0
 11
24.48856495835771
 21
-16.0
 31
0.0
  0
INSERT
  5
9A
330
51
100
AcDbEntity
  8
0
 62
     9
100
AcDbBlockReference
  2
_OPEN30
 10
24.48856495835771
 20
-16.0
 30
0.0
 41
1.500001393912182
 42
1.499994636989232
 50
360.0
  0
TEXT
  5
9B
330
51
100
AcDbEntity
  8
0
 62
     7
100
AcDbText
 10
28.73745495835771
 20
-15.5
 30
0.0
 40
2.0
  1
2.3
 41
0.8000000000000007
  7
FDASTYLE0
 72
     5
 11
33.53745495835771
 21
-15.5
 31
0.0
100
AcDbText
  0
ENDBLK
  5
53
330
51
100
AcDbEntity
  8
0
100
AcDbBlockEnd
  0
BLOCK
  5
55
330
54
100
AcDbEntity
  8
0
100
AcDbBlockBegin
  2
DA_IMAGEDIMGROUP_5
 70
     0
 71
     0
 10
0.0
 20
0.0
 30
0.0
  3
DA_IMAGEDIMGROUP_5
  1

  0
LINE
  5
9C
330
54
100
AcDbEntity
  8
0
  6
CONTINUOUS
 62
     9
100
AcDbLine
 10
26.78856495835771
 20
-8.4
 30
0.0
 11
26.78856495835771
 21
-20.49999999999999
 31
0.0
  0
LINE
  5
9D
330
54
100
AcDbEntity
  8
0
  6
CONTINUOUS
 62
     9
100
AcDbLine
 10
22.78856495835771
 20
-5.545099746830575
 30
0.0
 11
22.78856495835771
 21
-20.49999999999999
 31
0.0
  0
LINE
  5
9E
330
54
100
AcDbEntity
  8
0
  6
CONTINUOUS
 62
     9
100
AcDbLine
 10
22.78856495835771
 20
-19.99999999999999
 30
0.0
 11
26.78856495835771
 21
-19.99999999999999
 31
0.0
  0
LINE
  5
9F
330
54
100
AcDbEntity
  8
0
  6
CONTINUOUS
 62
     9
100
AcDbLine
 10
35.49745495835771
 20
-19.99999999999999
 30
0.0
 11
26.78856495835771
 21
-19.99999999999999
 31
0.0
  0
INSERT
  5
A0
330
54
100
AcDbEntity
  8
0
 62
     9
100
AcDbBlockReference
  2
_OPEN30
 10
26.78856495835771
 20
-19.99999999999999
 30
0.0
 41
1.500001393912182
 42
1.499994636989232
 50
180.0
  0
LINE
  5
A1
330
54
100
AcDbEntity
  8
0
  6
CONTINUOUS
 62
     9
100
AcDbLine
 10
20.28856495835771
 20
-19.99999999999999
 30
0.0
 11
22.78856495835771
 21
-19.99999999999999
 31
0.0
  0
INSERT
  5
A2
330
54
100
AcDbEntity
  8
0
 62
     9
100
AcDbBlockReference
  2
_OPEN30
 10
22.78856495835771
 20
-19.99999999999999
 30
0.0
 41
1.500001393912182
 42
1.499994636989232
 50
360.0
  0
TEXT
  5
A3
330
54
100
AcDbEntity
  8
0
 62
     7
100
AcDbText
 10
28.73745495835771
 20
-19.49999999999999
 30
0.0
 40
2.0
  1
4
 41
0.8000000000000007
  7
FDASTYLE0
 72
     5
 11
30.33745495835771
 21
-19.49999999999999
 31
0.0
100
AcDbText
  0
TEXT
  5
A4
330
54
100
AcDbEntity
  8
0
 62
     7
100
AcDbText
 10
30.83745495835771
 20
-18.2
 30
0.0
 40
1.3
  1
 0
 41
0.8000000000000007
  7
FDASTYLE0
 72
     5
 11
32.91745495835772
 21
-18.2
 31
0.0
100
AcDbText
  0
TEXT
  5
A5
330
54
100
AcDbEntity
  8
0
 62
     7
100
AcDbText
 10
30.83745495835771
 20
-19.59999999999999
 30
0.0
 40
1.3
  1
-0.3
 41
0.8
  7
FDASTYLE0
 72
     5
 11
34.99745495835771
 21
-19.59999999999999
 31
0.0
100
AcDbText
  0
ENDBLK
  5
56
330
54
100
AcDbEntity
  8
0
100
AcDbBlockEnd
  0
BLOCK
  5
58
330
57
100
AcDbEntity
  8
0
100
AcDbBlockBegin
  2
DA_IMAGEDIMGROUP_6
 70
     0
 71
     0
 10
0.0
 20
0.0
 30
0.0
  3
DA_IMAGEDIMGROUP_6
  1

  0
LINE
  5
A6
330
57
100
AcDbEntity
  8
0
  6
CONTINUOUS
 62
     9
100
AcDbLine
 10
7.788564958357706
 20
0.3874002531694192
 30
0.0
 11
7.788564958357706
 21
8.499999999999993
 31
0.0
  0
LINE
  5
A7
330
57
100
AcDbEntity
  8
0
  6
CONTINUOUS
 62
     9
100
AcDbLine
 10
10.9885649583577
 20
0.4999999999999947
 30
0.0
 11
10.9885649583577
 21
8.499999999999993
 31
0.0
  0
LINE
  5
A8
330
57
100
AcDbEntity
  8
0
  6
CONTINUOUS
 62
     9
100
AcDbLine
 10
7.788564958357706
 20
7.999999999999993
 30
0.0
 11
10.9885649583577
 21
7.999999999999993
 31
0.0
  0
LINE
  5
A9
330
57
100
AcDbEntity
  8
0
  6
CONTINUOUS
 62
     9
100
AcDbLine
 10
18.2374549583577
 20
7.999999999999993
 30
0.0
 11
10.9885649583577
 21
7.999999999999993
 31
0.0
  0
INSERT
  5
AA
330
57
100
AcDbEntity
  8
0
 62
     9
100
AcDbBlockReference
  2
_OPEN30
 10
10.9885649583577
 20
7.999999999999993
 30
0.0
 41
1.500001393912182
 42
1.499994636989232
 50
180.0
  0
LINE
  5
AB
330
57
100
AcDbEntity
  8
0
  6
CONTINUOUS
 62
     9
100
AcDbLine
 10
5.288564958357706
 20
7.999999999999993
 30
0.0
 11
7.788564958357706
 21
7.999999999999993
 31
0.0
  0
INSERT
  5
AC
330
57
100
AcDbEntity
  8
0
 62
     9
100
AcDbBlockReference
  2
_OPEN30
 10
7.788564958357706
 20
7.999999999999993
 30
0.0
 41
1.500001393912182
 42
1.499994636989232
 50
360.0
  0
TEXT
  5
AD
330
57
100
AcDbEntity
  8
0
 62
     7
100
AcDbText
 10
12.9374549583577
 20
8.499999999999993
 30
0.0
 40
2.0
  1
3.2
 41
0.7999999999999998
  7
FDASTYLE0
 72
     5
 11
17.7374549583577
 21
8.499999999999993
 31
0.0
100
AcDbText
  0
ENDBLK
  5
59
330
57
100
AcDbEntity
  8
0
100
AcDbBlockEnd
  0
BLOCK
  5
5B
330
5A
100
AcDbEntity
  8
0
100
AcDbBlockBegin
  2
DA_IMAGEDIMGROUP_7
 70
     0
 71
     0
 10
0.0
 20
0.0
 30
0.0
  3
DA_IMAGEDIMGROUP_7
  1

  0
LINE
  5
AE
330
5A
100
AcDbEntity
  8
0
  6
CONTINUOUS
 62
     9
100
AcDbLine
 10
2.158564958357691
 20
-2.956299873415285
 30
0.0
 11
2.158564958357691
 21
4.499999999999993
 31
0.0
  0
LINE
  5
AF
330
5A
100
AcDbEntity
  8
0
  6
CONTINUOUS
 62
     9
100
AcDbLine
 10
5.008564958357691
 20
-2.756299873415289
 30
0.0
 11
5.008564958357691
 21
4.499999999999993
 31
0.0
  0
LINE
  5
B0
330
5A
100
AcDbEntity
  8
0
  6
CONTINUOUS
 62
     9
100
AcDbLine
 10
2.158564958357691
 20
3.999999999999993
 30
0.0
 11
5.008564958357691
 21
3.999999999999993
 31
0.0
  0
LINE
  5
B1
330
5A
100
AcDbEntity
  8
0
  6
CONTINUOUS
 62
     9
100
AcDbLine
 10
-6.690325041642309
 20
3.999999999999994
 30
0.0
 11
2.158564958357691
 21
3.999999999999993
 31
0.0
  0
INSERT
  5
B2
330
5A
100
AcDbEntity
  8
0
 62
     9
100
AcDbBlockReference
  2
_OPEN30
 10
2.158564958357691
 20
3.999999999999993
 30
0.0
 41
1.500001393912182
 42
1.499994636989232
 50
360.0
  0
LINE
  5
B3
330
5A
100
AcDbEntity
  8
0
  6
CONTINUOUS
 62
     9
100
AcDbLine
 10
7.508564958357691
 20
3.999999999999992
 30
0.0
 11
5.008564958357691
 21
3.999999999999993
 31
0.0
  0
INSERT
  5
B4
330
5A
100
AcDbEntity
  8
0
 62
     9
100
AcDbBlockReference
  2
_OPEN30
 10
5.008564958357691
 20
3.999999999999993
 30
0.0
 41
1.500001393912182
 42
1.499994636989232
 50
180.0
  0
TEXT
  5
B5
330
5A
100
AcDbEntity
  8
0
 62
     7
100
AcDbText
 10
-6.190325041642309
 20
4.499999999999993
 30
0.0
 40
2.0
  1
2.85
 41
0.8
  7
FDASTYLE0
 72
     5
 11
0.2096749583576916
 21
4.499999999999993
 31
0.0
100
AcDbText
  0
ENDBLK
  5
5C
330
5A
100
AcDbEntity
  8
0
100
AcDbBlockEnd
  0
BLOCK
  5
5E
330
5D
100
AcDbEntity
  8
0
100
AcDbBlockBegin
  2
DA_IMAGEDIMGROUP_8
 70
     0
 71
     0
 10
0.0
 20
0.0
 30
0.0
  3
DA_IMAGEDIMGROUP_8
  1

  0
LINE
  5
B6
330
5D
100
AcDbEntity
  8
0
  6
CONTINUOUS
 62
     9
100
AcDbLine
 10
5.928564958357709
 20
-2.10629987341529
 30
0.0
 11
5.928564958357709
 21
16.49999999999999
 31
0.0
  0
LINE
  5
B7
330
5D
100
AcDbEntity
  8
0
  6
CONTINUOUS
 62
     9
100
AcDbLine
 10
7.788564958357706
 20
0.3874002531694192
 30
0.0
 11
7.788564958357706
 21
16.49999999999999
 31
0.0
  0
LINE
  5
B8
330
5D
100
AcDbEntity
  8
0
  6
CONTINUOUS
 62
     9
100
AcDbLine
 10
5.928564958357709
 20
15.99999999999999
 30
0.0
 11
7.788564958357706
 21
15.99999999999999
 31
0.0
  0
LINE
  5
B9
330
5D
100
AcDbEntity
  8
0
  6
CONTINUOUS
 62
     9
100
AcDbLine
 10
16.63745495835771
 20
15.99999999999999
 30
0.0
 11
7.788564958357705
 21
15.99999999999999
 31
0.0
  0
INSERT
  5
BA
330
5D
100
AcDbEntity
  8
0
 62
     9
100
AcDbBlockReference
  2
_OPEN30
 10
7.788564958357705
 20
15.99999999999999
 30
0.0
 41
1.500001393912182
 42
1.499994636989232
 50
180.0
  0
LINE
  5
BB
330
5D
100
AcDbEntity
  8
0
  6
CONTINUOUS
 62
     9
100
AcDbLine
 10
3.428564958357709
 20
15.99999999999999
 30
0.0
 11
5.928564958357709
 21
15.99999999999999
 31
0.0
  0
INSERT
  5
BC
330
5D
100
AcDbEntity
  8
0
 62
     9
100
AcDbBlockReference
  2
_OPEN30
 10
5.928564958357709
 20
15.99999999999999
 30
0.0
 41
1.500001393912182
 42
1.499994636989232
 50
360.0
  0
TEXT
  5
BD
330
5D
100
AcDbEntity
  8
0
 62
     7
100
AcDbText
 10
9.737454958357706
 20
16.49999999999999
 30
0.0
 40
2.0
  1
1.86
 41
0.8000000000000003
  7
FDASTYLE0
 72
     5
 11
16.13745495835771
 21
16.49999999999999
 31
0.0
100
AcDbText
  0
ENDBLK
  5
5F
330
5D
100
AcDbEntity
  8
0
100
AcDbBlockEnd
  0
BLOCK
  5
61
330
60
100
AcDbEntity
  8
0
100
AcDbBlockBegin
  2
DA_IMAGEDIMGROUP_9
 70
     0
 71
     0
 10
0.0
 20
0.0
 30
0.0
  3
DA_IMAGEDIMGROUP_9
  1

  0
LINE
  5
BE
330
60
100
AcDbEntity
  8
0
  6
CONTINUOUS
 62
     9
100
AcDbLine
 10
6.988564958357706
 20
-1.556299873415286
 30
0.0
 11
6.988564958357706
 21
12.49999999999999
 31
0.0
  0
LINE
  5
BF
330
60
100
AcDbEntity
  8
0
  6
CONTINUOUS
 62
     9
100
AcDbLine
 10
7.788564958357706
 20
0.3874002531694192
 30
0.0
 11
7.788564958357706
 21
12.49999999999999
 31
0.0
  0
LINE
  5
C0
330
60
100
AcDbEntity
  8
0
  6
CONTINUOUS
 62
     9
100
AcDbLine
 10
6.988564958357706
 20
11.99999999999999
 30
0.0
 11
7.788564958357706
 21
11.99999999999999
 31
0.0
  0
LINE
  5
C1
330
60
100
AcDbEntity
  8
0
  6
CONTINUOUS
 62
     9
100
AcDbLine
 10
15.03745495835771
 20
11.99999999999999
 30
0.0
 11
7.788564958357707
 21
11.99999999999999
 31
0.0
  0
INSERT
  5
C2
330
60
100
AcDbEntity
  8
0
 62
     9
100
AcDbBlockReference
  2
_OPEN30
 10
7.788564958357707
 20
11.99999999999999
 30
0.0
 41
1.500001393912182
 42
1.499994636989232
 50
180.0
  0
LINE
  5
C3
330
60
100
AcDbEntity
  8
0
  6
CONTINUOUS
 62
     9
100
AcDbLine
 10
4.488564958357706
 20
11.99999999999999
 30
0.0
 11
6.988564958357706
 21
11.99999999999999
 31
0.0
  0
INSERT
  5
C4
330
60
100
AcDbEntity
  8
0
 62
     9
100
AcDbBlockReference
  2
_OPEN30
 10
6.988564958357706
 20
11.99999999999999
 30
0.0
 41
1.500001393912182
 42
1.499994636989232
 50
360.0
  0
TEXT
  5
C5
330
60
100
AcDbEntity
  8
0
 62
     7
100
AcDbText
 10
9.737454958357708
 20
12.49999999999999
 30
0.0
 40
2.0
  1
0.8
 41
0.8000000000000002
  7
FDASTYLE0
 72
     5
 11
14.53745495835771
 21
12.49999999999999
 31
0.0
100
AcDbText
  0
ENDBLK
  5
62
330
60
100
AcDbEntity
  8
0
100
AcDbBlockEnd
  0
BLOCK
  5
64
330
63
100
AcDbEntity
  8
0
100
AcDbBlockBegin
  2
DA_IMAGEDIMGROUP_10
 70
     0
 71
     0
 10
0.0
 20
0.0
 30
0.0
  3
DA_IMAGEDIMGROUP_10
  1

  0
LINE
  5
C6
330
63
100
AcDbEntity
  8
0
  6
CONTINUOUS
 62
     9
100
AcDbLine
 10
2.158564958357691
 20
-2.956299873415285
 30
0.0
 11
2.158564958357691
 21
20.49999999999999
 31
0.0
  0
LINE
  5
C7
330
63
100
AcDbEntity
  8
0
  6
CONTINUOUS
 62
     9
100
AcDbLine
 10
7.788564958357706
 20
0.3874002531694192
 30
0.0
 11
7.788564958357706
 21
20.49999999999999
 31
0.0
  0
LINE
  5
C8
330
63
100
AcDbEntity
  8
0
  6
CONTINUOUS
 62
     9
100
AcDbLine
 10
26.78856495835771
 20
0.4000000000000004
 30
0.0
 11
26.78856495835771
 21
20.49999999999999
 31
0.0
  0
LINE
  5
C9
330
63
100
AcDbEntity
  8
0
  6
CONTINUOUS
 62
     9
100
AcDbLine
 10
2.158564958357691
 20
19.99999999999999
 30
0.0
 11
7.788564958357706
 21
19.99999999999999
 31
0.0
  0
INSERT
  5
CA
330
63
100
AcDbEntity
  8
0
 62
     9
100
AcDbBlockReference
  2
_OPEN30
 10
2.158564958357691
 20
19.99999999999999
 30
0.0
 41
1.500001393912182
 42
1.499994636989232
 50
180.0
  0
INSERT
  5
CB
330
63
100
AcDbEntity
  8
0
 62
     9
100
AcDbBlockReference
  2
_OPEN30
 10
7.788564958357706
 20
19.99999999999999
 30
0.0
 41
1.500001393912182
 42
1.499994636989232
 50
360.0
  0
LINE
  5
CC
330
63
100
AcDbEntity
  8
0
  6
CONTINUOUS
 62
     9
100
AcDbLine
 10
7.788564958357706
 20
19.99999999999999
 30
0.0
 11
26.78856495835771
 21
19.99999999999999
 31
0.0
  0
INSERT
  5
CD
330
63
100
AcDbEntity
  8
0
 62
     9
100
AcDbBlockReference
  2
_OPEN30
 10
7.788564958357706
 20
19.99999999999999
 30
0.0
 41
1.500001393912182
 42
1.499994636989232
 50
180.0
  0
INSERT
  5
CE
330
63
100
AcDbEntity
  8
0
 62
     9
100
AcDbBlockReference
  2
_OPEN30
 10
26.78856495835771
 20
19.99999999999999
 30
0.0
 41
1.500001393912182
 42
1.499994636989232
 50
360.0
  0
TEXT
  5
CF
330
63
100
AcDbEntity
  8
0
 62
     7
100
AcDbText
 10
1.773564958357699
 20
20.49999999999999
 30
0.0
 40
2.0
  1
5.63
 41
0.7999999999999999
  7
FDASTYLE0
 72
     5
 11
8.173564958357698
 21
20.49999999999999
 31
0.0
100
AcDbText
  0
TEXT
  5
D0
330
63
100
AcDbEntity
  8
0
 62
     7
100
AcDbText
 10
15.68856495835771
 20
20.49999999999999
 30
0.0
 40
2.0
  1
19
 41
0.8000000000000003
  7
FDASTYLE0
 72
     5
 11
18.88856495835771
 21
20.49999999999999
 31
0.0
100
AcDbText
  0
ENDBLK
  5
65
330
63
100
AcDbEntity
  8
0
100
AcDbBlockEnd
  0
BLOCK
  5
67
330
66
100
AcDbEntity
  8
0
100
AcDbBlockBegin
  2
DA_IMAGEDIMGROUP_11
 70
     0
 71
     0
 10
0.0
 20
0.0
 30
0.0
  3
DA_IMAGEDIMGROUP_11
  1

  0
LINE
  5
D1
330
66
100
AcDbEntity
  8
0
  6
CONTINUOUS
 62
     9
100
AcDbLine
 10
1.658564958357691
 20
-3.456299873415285
 30
0.0
 11
-8.34143504164231
 21
-3.456299873415285
 31
0.0
  0
LINE
  5
D2
330
66
100
AcDbEntity
  8
0
  6
CONTINUOUS
 62
     9
100
AcDbLine
 10
1.858564958357692
 20
-4.756299873415289
 30
0.0
 11
-8.34143504164231
 21
-4.756299873415289
 31
0.0
  0
LINE
  5
D3
330
66
100
AcDbEntity
  8
0
  6
CONTINUOUS
 62
     9
100
AcDbLine
 10
-7.84143504164231
 20
-4.756299873415289
 30
0.0
 11
-7.84143504164231
 21
-3.456299873415285
 31
0.0
  0
LINE
  5
D4
330
66
100
AcDbEntity
  8
0
  6
CONTINUOUS
 62
     9
100
AcDbLine
 10
-7.84143504164231
 20
9.492590126584716
 30
0.0
 11
-7.84143504164231
 21
-3.456299873415285
 31
0.0
  0
INSERT
  5
D5
330
66
100
AcDbEntity
  8
0
 62
     9
100
AcDbBlockReference
  2
_OPEN30
 10
-7.84143504164231
 20
-3.456299873415285
 30
0.0
 41
1.500001393912182
 42
1.499994636989232
 50
270.0
  0
LINE
  5
D6
330
66
100
AcDbEntity
  8
0
  6
CONTINUOUS
 62
     9
100
AcDbLine
 10
-7.84143504164231
 20
-7.256299873415289
 30
0.0
 11
-7.84143504164231
 21
-4.756299873415289
 31
0.0
  0
INSERT
  5
D7
330
66
100
AcDbEntity
  8
0
 62
     9
100
AcDbBlockReference
  2
_OPEN30
 10
-7.84143504164231
 20
-4.756299873415289
 30
0.0
 41
1.500001393912182
 42
1.499994636989232
 50
90.0
  0
TEXT
  5
D8
330
66
100
AcDbEntity
  8
0
 62
     7
100
AcDbText
 10
-8.34143504164231
 20
-1.507409873415285
 30
0.0
 40
2.0
  1
1.3
 50
90.0
 41
0.8000000000000002
  7
FDASTYLE0
 72
     5
 11
-8.34143504164231
 21
3.292590126584716
 31
0.0
100
AcDbText
  0
TEXT
  5
D9
330
66
100
AcDbEntity
  8
0
 62
     7
100
AcDbText
 10
-9.641435041642307
 20
3.792590126584717
 30
0.0
 40
1.3
  1
 0
 50
90.0
 41
0.8
  7
FDASTYLE0
 72
     5
 11
-9.641435041642307
 21
5.872590126584717
 31
0.0
100
AcDbText
  0
TEXT
  5
DA
330
66
100
AcDbEntity
  8
0
 62
     7
100
AcDbText
 10
-8.241435041642308
 20
3.792590126584717
 30
0.0
 40
1.3
  1
-0.05
 50
90.0
 41
0.7999999999999999
  7
FDASTYLE0
 72
     5
 11
-8.241435041642308
 21
8.992590126584716
 31
0.0
100
AcDbText
  0
ENDBLK
  5
68
330
66
100
AcDbEntity
  8
0
100
AcDbBlockEnd
  0
BLOCK
  5
6A
330
69
100
AcDbEntity
  8
0
100
AcDbBlockBegin
  2
DA_IMAGEDIMGROUP_12
 70
     0
 71
     0
 10
0.0
 20
0.0
 30
0.0
  3
DA_IMAGEDIMGROUP_12
  1

  0
LINE
  5
DB
330
69
100
AcDbEntity
  8
0
  6
CONTINUOUS
 62
     9
100
AcDbLine
 10
1.858564958357692
 20
-4.756299873415289
 30
0.0
 11
-12.34143504164231
 21
-4.756299873415289
 31
0.0
  0
LINE
  5
DC
330
69
100
AcDbEntity
  8
0
  6
CONTINUOUS
 62
     9
100
AcDbLine
 10
4.508564958357691
 20
-3.256299873415289
 30
0.0
 11
-12.34143504164231
 21
-3.256299873415289
 31
0.0
  0
LINE
  5
DD
330
69
100
AcDbEntity
  8
0
  6
CONTINUOUS
 62
     9
100
AcDbLine
 10
-11.84143504164231
 20
-4.756299873415289
 30
0.0
 11
-11.84143504164231
 21
-3.256299873415289
 31
0.0
  0
LINE
  5
DE
330
69
100
AcDbEntity
  8
0
  6
CONTINUOUS
 62
     9
100
AcDbLine
 10
-11.84143504164231
 20
12.33259012658471
 30
0.0
 11
-11.84143504164231
 21
-3.256299873415289
 31
0.0
  0
INSERT
  5
DF
330
69
100
AcDbEntity
  8
0
 62
     9
100
AcDbBlockReference
  2
_OPEN30
 10
-11.84143504164231
 20
-3.256299873415289
 30
0.0
 41
1.500001393912182
 42
1.499994636989232
 50
270.0
  0
LINE
  5
E0
330
69
100
AcDbEntity
  8
0
  6
CONTINUOUS
 62
     9
100
AcDbLine
 10
-11.84143504164231
 20
-7.256299873415289
 30
0.0
 11
-11.84143504164231
 21
-4.756299873415289
 31
0.0
  0
INSERT
  5
E1
330
69
100
AcDbEntity
  8
0
 62
     9
100
AcDbBlockReference
  2
_OPEN30
 10
-11.84143504164231
 20
-4.756299873415289
 30
0.0
 41
1.500001393912182
 42
1.499994636989232
 50
90.0
  0
TEXT
  5
E2
330
69
100
AcDbEntity
  8
0
 62
     7
100
AcDbText
 10
-12.34143504164231
 20
-1.307409873415288
 30
0.0
 40
2.0
  1
φ1.5
 50
90.0
 41
0.7619047619047619
  7
FDASTYLE0
 72
     5
 11
-12.34143504164231
 21
5.092590126584712
 31
0.0
100
AcDbText
  0
TEXT
  5
E3
330
69
100
AcDbEntity
  8
0
 62
     7
100
AcDbText
 10
-13.64143504164231
 20
5.592590126584712
 30
0.0
 40
1.3
  1
 0
 50
90.0
 41
0.8
  7
FDASTYLE0
 72
     5
 11
-13.64143504164231
 21
7.672590126584712
 31
0.0
100
AcDbText
  0
TEXT
  5
E4
330
69
100
AcDbEntity
  8
0
 62
     7
100
AcDbText
 10
-12.24143504164231
 20
5.592590126584712
 30
0.0
 40
1.3
  1
-0.012
 50
90.0
 41
0.7999999999999999
  7
FDASTYLE0
 72
     5
 11
-12.24143504164231
 21
11.83259012658471
 31
0.0
100
AcDbText
  0
ENDBLK
  5
6B
330
69
100
AcDbEntity
  8
0
100
AcDbBlockEnd
  0
BLOCK
  5
6D
330
6C
100
AcDbEntity
  8
0
100
AcDbBlockBegin
  2
DA_IMAGEDIMGROUP_13
 70
     0
 71
     0
 10
0.0
 20
0.0
 30
0.0
  3
DA_IMAGEDIMGROUP_13
  1

  0
LINE
  5
E5
330
6C
100
AcDbEntity
  8
0
  6
CONTINUOUS
 62
     9
100
AcDbLine
 10
6.538564958357704
 20
-6.006299873415292
 30
0.0
 11
-16.34143504164231
 21
-6.006299873415292
 31
0.0
  0
LINE
  5
E6
330
6C
100
AcDbEntity
  8
0
  6
CONTINUOUS
 62
     9
100
AcDbLine
 10
6.538564958357704
 20
-2.006299873415285
 30
0.0
 11
-16.34143504164231
 21
-2.006299873415285
 31
0.0
  0
LINE
  5
E7
330
6C
100
AcDbEntity
  8
0
  6
CONTINUOUS
 62
     9
100
AcDbLine
 10
-15.84143504164231
 20
-6.006299873415292
 30
0.0
 11
-15.84143504164231
 21
-2.006299873415285
 31
0.0
  0
INSERT
  5
E8
330
6C
100
AcDbEntity
  8
0
 62
     9
100
AcDbBlockReference
  2
_OPEN30
 10
-15.84143504164231
 20
-6.006299873415292
 30
0.0
 41
1.500001393912182
 42
1.499994636989232
 50
270.0
  0
INSERT
  5
E9
330
6C
100
AcDbEntity
  8
0
 62
     9
100
AcDbBlockReference
  2
_OPEN30
 10
-15.84143504164231
 20
-2.006299873415285
 30
0.0
 41
1.500001393912182
 42
1.499994636989232
 50
90.0
  0
TEXT
  5
EA
330
6C
100
AcDbEntity
  8
0
 62
     7
100
AcDbText
 10
-16.34143504164231
 20
-5.60629987341529
 30
0.0
 40
2.0
  1
φ4
 50
90.0
 41
0.7272727272727274
  7
FDASTYLE0
 72
     5
 11
-16.34143504164231
 21
-2.406299873415289
 31
0.0
100
AcDbText
  0
ENDBLK
  5
6E
330
6C
100
AcDbEntity
  8
0
100
AcDbBlockEnd
  0
BLOCK
  5
70
330
6F
100
AcDbEntity
  8
0
100
AcDbBlockBegin
  2
DC_GROUP_1
 70
     0
 71
     0
 10
0.0
 20
0.0
 30
0.0
  3
DC_GROUP_1
  1

  0
LINE
  5
EB
330
6F
100
AcDbEntity
  8
0
  6
CONTINUOUS
 62
     9
100
AcDbLine
 10
9.238564958357706
 20
-7.999999999999995
 30
0.0
 11
6.15856495835769
 21
-12.0
 31
0.0
  0
INSERT
  5
EC
330
6F
100
AcDbEntity
  8
0
 62
     9
100
AcDbBlockReference
  2
_OPEN30
 10
9.238564958357706
 20
-7.999999999999995
 30
0.0
 41
1.500001393912182
 42
1.499994636989232
 50
52.40372885278786
  0
LINE
  5
ED
330
6F
100
AcDbEntity
  8
0
  6
CONTINUOUS
 62
     9
100
AcDbLine
 10
6.15856495835769
 20
-12.0
 30
0.0
 11
-8.241435041642308
 21
-12.0
 31
0.0
  0
TEXT
  5
EE
330
6F
100
AcDbEntity
  8
0
 62
     7
100
AcDbText
 10
-8.241435041642308
 20
-11.5
 30
0.0
 40
2.0
  1
Ｍ8（Ｐ=0.5)
 41
0.75
  7
FDASTYLE0
 72
     5
 11
6.158564958357692
 21
-11.5
 31
0.0
100
AcDbText
  0
ENDBLK
  5
71
330
6F
100
AcDbEntity
  8
0
100
AcDbBlockEnd
  0
BLOCK
  5
73
330
72
100
AcDbEntity
  8
0
100
AcDbBlockBegin
  2
DC_GROUP_2
 70
     0
 71
     0
 10
0.0
 20
0.0
 30
0.0
  3
DC_GROUP_2
  1

  0
LINE
  5
EF
330
72
100
AcDbEntity
  8
0
  6
CONTINUOUS
 62
     9
100
AcDbLine
 10
25.08856495835771
 20
-6.735267456115817
 30
0.0
 11
18.15856495835769
 21
-16.0
 31
0.0
  0
INSERT
  5
F0
330
72
100
AcDbEntity
  8
0
 62
     9
100
AcDbBlockReference
  2
_OPEN30
 10
25.08856495835771
 20
-6.735267456115817
 30
0.0
 41
1.500001393912182
 42
1.499994636989232
 50
53.20359046879262
  0
LINE
  5
F1
330
72
100
AcDbEntity
  8
0
  6
CONTINUOUS
 62
     9
100
AcDbLine
 10
18.15856495835769
 20
-16.0
 30
0.0
 11
0.5585649583576888
 21
-16.0
 31
0.0
  0
TEXT
  5
F2
330
72
100
AcDbEntity
  8
0
 62
     7
100
AcDbText
 10
0.5585649583576888
 20
-15.5
 30
0.0
 40
2.0
  1
Ｍ5.5（Ｐ＝0.5）
 41
0.7333333333333334
  7
FDASTYLE0
 72
     5
 11
18.15856495835769
 21
-15.5
 31
0.0
100
AcDbText
  0
ENDBLK
  5
74
330
72
100
AcDbEntity
  8
0
100
AcDbBlockEnd
  0
BLOCK
  5
7A
330
79
100
AcDbEntity
  8
0
100
AcDbBlockBegin
  2
_OPEN30
 70
     0
 71
     0
 10
0.0
 20
0.0
 30
0.0
  3
_OPEN30
  1

  0
LINE
  5
7C
330
79
100
AcDbEntity
  8
0
  6
BYBLOCK
 62
     0
100
AcDbLine
 10
-1.0
 20
0.267949
 30
0.0
 11
0.0
 21
0.0
 31
0.0
  0
LINE
  5
7D
330
79
100
AcDbEntity
  8
0
  6
BYBLOCK
 62
     0
100
AcDbLine
 10
0.0
 20
0.0
 30
0.0
 11
-1.0
 21
-0.267949
 31
0.0
  0
LINE
  5
7E
330
79
100
AcDbEntity
  8
0
  6
BYBLOCK
 62
     0
100
AcDbLine
 10
0.0
 20
0.0
 30
0.0
 11
-1.0
 21
0.0
 31
0.0
  0
ENDBLK
  5
7B
330
79
100
AcDbEntity
  8
0
100
AcDbBlockEnd
  0
ENDSEC
  0
SECTION
  2
ENTITIES
  0
LINE
  5
F3
330
1F
100
AcDbEntity
  8
0
  6
CONTINUOUS
 62
     3
100
AcDbLine
 10
10.68856495835771
 20
-0.0125997468305794
 30
0.0
 11
10.68856495835771
 21
-7.999999999999995
 31
0.0
  0
LINE
  5
F4
330
1F
100
AcDbEntity
  8
0
  6
CONTINUOUS
 62
     3
100
AcDbLine
 10
7.788564958357706
 20
-0.1125997468305808
 30
0.0
 11
7.888564958357704
 21
-0.0125997468305794
 31
0.0
  0
LINE
  5
F5
330
1F
100
AcDbEntity
  8
0
  6
CONTINUOUS
 62
     3
100
AcDbLine
 10
7.888564958357704
 20
-0.0125997468305794
 30
0.0
 11
10.68856495835771
 21
-0.0125997468305794
 31
0.0
  0
LINE
  5
F6
330
1F
100
AcDbEntity
  8
0
  6
CONTINUOUS
 62
     3
100
AcDbLine
 10
7.788564958357706
 20
-0.1125997468305808
 30
0.0
 11
7.788564958357706
 21
-7.899999999999993
 31
0.0
  0
LINE
  5
F7
330
1F
100
AcDbEntity
  8
0
  6
CONTINUOUS
 62
     3
100
AcDbLine
 10
10.68856495835771
 20
-0.3500000000000068
 30
0.0
 11
10.9885649583577
 21
-0.3500000000000068
 31
0.0
  0
LINE
  5
F8
330
1F
100
AcDbEntity
  8
0
  6
CONTINUOUS
 62
     3
100
AcDbLine
 10
10.9885649583577
 20
-7.999999999999995
 30
0.0
 11
10.9885649583577
 21
-0.0000000000000053
 31
0.0
  0
LINE
  5
F9
330
1F
100
AcDbEntity
  8
0
  6
CONTINUOUS
 62
     3
100
AcDbLine
 10
24.24856495835771
 20
-0.0000000000000053
 30
0.0
 11
10.9885649583577
 21
-0.0000000000000053
 31
0.0
  0
LINE
  5
FA
330
1F
100
AcDbEntity
  8
0
  6
CONTINUOUS
 62
     3
100
AcDbLine
 10
26.18856495835771
 20
-0.0999999999999996
 30
0.0
 11
24.34856495835771
 21
-0.0999999999999996
 31
0.0
  0
LINE
  5
FB
330
1F
100
AcDbEntity
  8
0
  6
CONTINUOUS
 62
     3
100
AcDbLine
 10
26.18856495835771
 20
-7.900000000000004
 30
0.0
 11
24.34856495835771
 21
-7.900000000000004
 31
0.0
  0
ARC
  5
FC
330
1F
100
AcDbEntity
  8
0
  6
CONTINUOUS
 62
     3
100
AcDbCircle
 10
24.24856495835771
 20
-0.1000000000000068
 30
0.0
 40
0.1
100
AcDbArc
 50
0.0
 51
90.0
  0
ARC
  5
FD
330
1F
100
AcDbEntity
  8
0
  6
CONTINUOUS
 62
     3
100
AcDbCircle
 10
24.24856495835771
 20
-7.899999999999993
 30
0.0
 40
0.1
100
AcDbArc
 50
270.0
 51
360.0
  0
LINE
  5
FE
330
1F
100
AcDbEntity
  8
0
  6
CONTINUOUS
 62
     3
100
AcDbLine
 10
7.888564958357708
 20
-7.999999999999995
 30
0.0
 11
7.788564958357706
 21
-7.899999999999993
 31
0.0
  0
LINE
  5
FF
330
1F
100
AcDbEntity
  8
0
  6
CONTINUOUS
 62
     3
100
AcDbLine
 10
10.68856495835771
 20
-7.649999999999993
 30
0.0
 11
10.9885649583577
 21
-7.649999999999993
 31
0.0
  0
LINE
  5
100
330
1F
100
AcDbEntity
  8
0
  6
CONTINUOUS
 62
     3
100
AcDbLine
 10
24.24856495835771
 20
-7.999999999999995
 30
0.0
 11
10.9885649583577
 21
-7.999999999999995
 31
0.0
  0
LINE
  5
101
330
1F
100
AcDbEntity
  8
0
  6
CONTINUOUS
 62
     3
100
AcDbLine
 10
10.68856495835771
 20
-7.999999999999995
 30
0.0
 11
7.888564958357708
 21
-7.999999999999995
 31
0.0
  0
LINE
  5
102
330
1F
100
AcDbEntity
  8
0
  6
CONTINUOUS
 62
     3
100
AcDbLine
 10
7.788564958357706
 20
-0.6062998734152867
 30
0.0
 11
7.788564958357706
 21
-7.406299873415284
 31
0.0
  0
LINE
  5
103
330
1F
100
AcDbEntity
  8
0
  6
CONTINUOUS
 62
     3
100
AcDbLine
 10
7.788564958357706
 20
-2.006299873415285
 30
0.0
 11
7.038564958357704
 21
-2.006299873415285
 31
0.0
  0
LINE
  5
104
330
1F
100
AcDbEntity
  8
0
  6
CONTINUOUS
 62
     3
100
AcDbLine
 10
6.988564958357706
 20
-2.056299873415286
 30
0.0
 11
6.988564958357706
 21
-5.956299873415292
 31
0.0
  0
LINE
  5
105
330
1F
100
AcDbEntity
  8
0
  6
CONTINUOUS
 62
     3
100
AcDbLine
 10
7.788564958357706
 20
-6.006299873415292
 30
0.0
 11
7.038564958357704
 21
-6.006299873415292
 31
0.0
  0
LINE
  5
106
330
1F
100
AcDbEntity
  8
0
  6
CONTINUOUS
 62
     3
100
AcDbLine
 10
7.038564958357704
 20
-2.006299873415285
 30
0.0
 11
6.988564958357706
 21
-2.056299873415286
 31
0.0
  0
LINE
  5
107
330
1F
100
AcDbEntity
  8
0
  6
CONTINUOUS
 62
     3
100
AcDbLine
 10
6.988564958357706
 20
-5.956299873415292
 30
0.0
 11
7.038564958357704
 21
-6.006299873415292
 31
0.0
  0
LINE
  5
108
330
1F
100
AcDbEntity
  8
0
  6
CONTINUOUS
 62
     3
100
AcDbLine
 10
2.158564958357691
 20
-4.702334539606282
 30
0.0
 11
2.158564958357691
 21
-3.456299873415285
 31
0.0
  0
LINE
  5
109
330
1F
100
AcDbEntity
  8
0
  6
CONTINUOUS
 62
     3
100
AcDbLine
 10
2.158564958357691
 20
-3.456299873415285
 30
0.0
 11
5.008564958357691
 21
-3.456299873415285
 31
0.0
  0
LINE
  5
10A
330
1F
100
AcDbEntity
  8
0
  6
CONTINUOUS
 62
     3
100
AcDbLine
 10
2.358564958357692
 20
-4.756299873415289
 30
0.0
 11
2.358564958357692
 21
-3.456299873415285
 31
0.0
  0
LINE
  5
10B
330
1F
100
AcDbEntity
  8
0
  6
CONTINUOUS
 62
     3
100
AcDbLine
 10
5.008564958357691
 20
-3.256299873415289
 30
0.0
 11
5.928564958357709
 21
-3.256299873415289
 31
0.0
  0
LINE
  5
10C
330
1F
100
AcDbEntity
  8
0
  6
CONTINUOUS
 62
     3
100
AcDbLine
 10
2.358564958357692
 20
-4.756299873415289
 30
0.0
 11
5.928564958357709
 21
-4.756299873415289
 31
0.0
  0
LINE
  5
10D
330
1F
100
AcDbEntity
  8
0
  6
CONTINUOUS
 62
     3
100
AcDbLine
 10
2.358564958357692
 20
-4.756299873415289
 30
0.0
 11
2.158471084526995
 21
-4.70268488151194
 31
0.0
  0
LINE
  5
10E
330
1F
100
AcDbEntity
  8
0
  6
CONTINUOUS
 62
     3
100
AcDbLine
 10
6.888564958357705
 20
-2.506299873415289
 30
0.0
 11
6.028564958357707
 21
-2.506299873415289
 31
0.0
  0
LINE
  5
10F
330
1F
100
AcDbEntity
  8
0
  6
CONTINUOUS
 62
     3
100
AcDbLine
 10
6.028564958357707
 20
-5.506299873415285
 30
0.0
 11
6.888564958357705
 21
-5.506299873415285
 31
0.0
  0
LINE
  5
110
330
1F
100
AcDbEntity
  8
0
  6
CONTINUOUS
 62
     3
100
AcDbLine
 10
5.928564958357709
 20
-2.60629987341529
 30
0.0
 11
6.028564958357707
 21
-2.506299873415289
 31
0.0
  0
LINE
  5
111
330
1F
100
AcDbEntity
  8
0
  6
CONTINUOUS
 62
     3
100
AcDbLine
 10
6.888564958357705
 20
-2.506299873415289
 30
0.0
 11
6.988564958357706
 21
-2.60629987341529
 31
0.0
  0
LINE
  5
112
330
1F
100
AcDbEntity
  8
0
  6
CONTINUOUS
 62
     3
100
AcDbLine
 10
6.888564958357705
 20
-5.506299873415285
 30
0.0
 11
6.988564958357706
 21
-5.406299873415287
 31
0.0
  0
LINE
  5
113
330
1F
100
AcDbEntity
  8
0
  6
CONTINUOUS
 62
     3
100
AcDbLine
 10
5.928564958357709
 20
-5.406299873415287
 30
0.0
 11
6.028564958357707
 21
-5.506299873415285
 31
0.0
  0
LINE
  5
114
330
1F
100
AcDbEntity
  8
0
  6
CONTINUOUS
 62
     3
100
AcDbLine
 10
6.988564958357706
 20
-2.60629987341529
 30
0.0
 11
6.988564958357706
 21
-3.256299873415289
 31
0.0
  0
LINE
  5
115
330
1F
100
AcDbEntity
  8
0
  6
CONTINUOUS
 62
     3
100
AcDbLine
 10
5.928564958357709
 20
-2.60629987341529
 30
0.0
 11
5.928564958357709
 21
-5.406299873415287
 31
0.0
  0
LINE
  5
116
330
1F
100
AcDbEntity
  8
0
  6
CONTINUOUS
 62
     3
100
AcDbLine
 10
24.34856495835771
 20
-0.1000000000000068
 30
0.0
 11
24.34856495835771
 21
-7.899999999999986
 31
0.0
  0
CIRCLE
  5
117
330
1F
100
AcDbEntity
  8
0
  6
CONTINUOUS
 62
     3
100
AcDbCircle
 10
-27.83513504164231
 20
-4.012599746830576
 30
0.0
 40
3.9937
  0
CIRCLE
  5
118
330
1F
100
AcDbEntity
  8
0
  6
CONTINUOUS
 62
     3
100
AcDbCircle
 10
-27.83513504164231
 20
-4.012599746830576
 30
0.0
 40
2.0
  0
CIRCLE
  5
119
330
1F
100
AcDbEntity
  8
0
  6
CONTINUOUS
 62
     3
100
AcDbCircle
 10
-27.83513504164231
 20
-4.012599746830576
 30
0.0
 40
1.5
  0
CIRCLE
  5
11A
330
1F
100
AcDbEntity
  8
0
  6
CONTINUOUS
 62
     3
100
AcDbCircle
 10
-27.83513504164231
 20
-4.012599746830576
 30
0.0
 40
0.75
  0
LINE
  5
11B
330
1F
100
AcDbEntity
  8
0
  6
CONTINUOUS
 62
     3
100
AcDbLine
 10
-28.3381563640911
 20
-3.456299873415285
 30
0.0
 11
-27.33211371919351
 21
-3.456299873415285
 31
0.0
  0
LINE
  5
11C
330
1F
100
AcDbEntity
  8
0
  6
CONTINUOUS
 62
     3
100
AcDbLine
 10
5.008564958357691
 20
-3.456299873415285
 30
0.0
 11
5.008564958357691
 21
-3.256299873415289
 31
0.0
  0
LINE
  5
11D
330
1F
100
AcDbEntity
  8
0
  6
CONTINUOUS
 62
     7
100
AcDbLine
 10
7.788564958357706
 20
-0.2705000000000002
 30
0.0
 11
10.68856495835771
 21
-0.2705000000000002
 31
0.0
  0
LINE
  5
11E
330
1F
100
AcDbEntity
  8
0
  6
CONTINUOUS
 62
     7
100
AcDbLine
 10
7.788564958357706
 20
-7.7295
 30
0.0
 11
10.68856495835771
 21
-7.7295
 31
0.0
  0
CIRCLE
  5
11F
330
1F
100
AcDbEntity
  8
0
  6
CONTINUOUS
 62
     7
100
AcDbCircle
 10
-27.83513504164231
 20
-4.012599746830576
 30
0.0
 40
3.7295
  0
LINE
  5
120
330
1F
100
AcDbEntity
  8
LAYER0001
  6
CONTINUOUS
 62
     3
100
AcDbLine
 10
26.28856495835771
 20
-0.1999999999999975
 30
0.0
 11
26.28856495835771
 21
-7.800000000000003
 31
0.0
  0
LINE
  5
121
330
1F
100
AcDbEntity
  8
LAYER0001
  6
CONTINUOUS
 62
     3
100
AcDbLine
 10
26.28856495835771
 20
-0.1999999999999975
 30
0.0
 11
26.18856495835771
 21
-0.0999999999999996
 31
0.0
  0
LINE
  5
122
330
1F
100
AcDbEntity
  8
LAYER0001
  6
CONTINUOUS
 62
     3
100
AcDbLine
 10
26.28856495835771
 20
-7.800000000000003
 30
0.0
 11
26.18856495835771
 21
-7.900000000000004
 31
0.0
  0
LINE
  5
123
330
1F
100
AcDbEntity
  8
LAYER0001
  6
CONTINUOUS
 62
     3
100
AcDbLine
 10
26.68856495835771
 20
-0.0000000000000018
 30
0.0
 11
26.38856495835771
 21
-0.0000000000000018
 31
0.0
  0
LINE
  5
124
330
1F
100
AcDbEntity
  8
LAYER0001
  6
CONTINUOUS
 62
     3
100
AcDbLine
 10
26.28856495835771
 20
-0.0999999999999996
 30
0.0
 11
26.28856495835771
 21
-0.7000000000000153
 31
0.0
  0
LINE
  5
125
330
1F
100
AcDbEntity
  8
LAYER0001
  6
CONTINUOUS
 62
     3
100
AcDbLine
 10
26.38856495835771
 20
-0.0000000000000018
 30
0.0
 11
26.28856495835771
 21
-0.0999999999999996
 31
0.0
  0
LINE
  5
126
330
1F
100
AcDbEntity
  8
LAYER0001
  6
CONTINUOUS
 62
     3
100
AcDbLine
 10
26.68856495835771
 20
-0.0000000000000018
 30
0.0
 11
26.78856495835771
 21
-0.0999999999999996
 31
0.0
  0
LINE
  5
127
330
1F
100
AcDbEntity
  8
LAYER0001
  6
CONTINUOUS
 62
     3
100
AcDbLine
 10
26.38856495835771
 20
-8.000000000000002
 30
0.0
 11
26.28856495835771
 21
-7.9
 31
0.0
  0
LINE
  5
128
330
1F
100
AcDbEntity
  8
LAYER0001
  6
CONTINUOUS
 62
     3
100
AcDbLine
 10
26.68856495835771
 20
-8.000000000000002
 30
0.0
 11
26.38856495835771
 21
-8.000000000000002
 31
0.0
  0
LINE
  5
129
330
1F
100
AcDbEntity
  8
LAYER0001
  6
CONTINUOUS
 62
     3
100
AcDbLine
 10
26.28856495835771
 20
-7.9
 30
0.0
 11
26.28856495835771
 21
-7.299999999999988
 31
0.0
  0
LINE
  5
12A
330
1F
100
AcDbEntity
  8
LAYER0001
  6
CONTINUOUS
 62
     3
100
AcDbLine
 10
26.68856495835771
 20
-8.000000000000002
 30
0.0
 11
26.78856495835771
 21
-7.9
 31
0.0
  0
LINE
  5
12B
330
1F
100
AcDbEntity
  8
0
  6
DASHED2
 62
     9
100
AcDbLine
 10
25.68856495835771
 20
-1.000000000000002
 30
0.0
 11
25.68856495835771
 21
-7.000000000000002
 31
0.0
  0
LINE
  5
12C
330
1F
100
AcDbEntity
  8
0
  6
DASHED2
 62
     9
100
AcDbLine
 10
25.68856495835771
 20
-1.000000000000002
 30
0.0
 11
26.78856495835771
 21
-1.000000000000002
 31
0.0
  0
LINE
  5
12D
330
1F
100
AcDbEntity
  8
0
  6
DASHED2
 62
     9
100
AcDbLine
 10
25.68856495835771
 20
-7.000000000000002
 30
0.0
 11
26.78856495835771
 21
-7.000000000000002
 31
0.0
  0
LINE
  5
12E
330
1F
100
AcDbEntity
  8
0
  6
DASHED2
 62
     9
100
AcDbLine
 10
24.48856495835771
 20
-1.250000000000002
 30
0.0
 11
25.68856495835771
 21
-1.250000000000002
 31
0.0
  0
LINE
  5
12F
330
1F
100
AcDbEntity
  8
0
  6
DASHED2
 62
     9
100
AcDbLine
 10
24.48856495835771
 20
-6.750000000000002
 30
0.0
 11
25.68856495835771
 21
-6.750000000000002
 31
0.0
  0
LINE
  5
130
330
1F
100
AcDbEntity
  8
0
  6
DASHED2
 62
     9
100
AcDbLine
 10
24.48856495835771
 20
-1.5205
 30
0.0
 11
25.68856495835771
 21
-1.5205
 31
0.0
  0
LINE
  5
131
330
1F
100
AcDbEntity
  8
0
  6
DASHED2
 62
     9
100
AcDbLine
 10
24.48856495835771
 20
-6.479500000000003
 30
0.0
 11
25.68856495835771
 21
-6.479500000000003
 31
0.0
  0
LINE
  5
132
330
1F
100
AcDbEntity
  8
0
  6
DASHED2
 62
     9
100
AcDbLine
 10
24.48856495835771
 20
-1.250000000000002
 30
0.0
 11
24.48856495835771
 21
-6.750000000000002
 31
0.0
  0
LINE
  5
133
330
1F
100
AcDbEntity
  8
0
  6
DASHED2
 62
     9
100
AcDbLine
 10
24.48856495835771
 20
-2.880099746830576
 30
0.0
 11
22.88856495835771
 21
-2.880099746830576
 31
0.0
  0
LINE
  5
134
330
1F
100
AcDbEntity
  8
0
  6
DASHED2
 62
     9
100
AcDbLine
 10
22.78856495835771
 20
-2.980099746830577
 30
0.0
 11
22.78856495835771
 21
-5.045099746830575
 31
0.0
  0
LINE
  5
135
330
1F
100
AcDbEntity
  8
0
  6
DASHED2
 62
     9
100
AcDbLine
 10
22.78856495835771
 20
-3.217599746830578
 30
0.0
 11
24.48856495835771
 21
-3.217599746830578
 31
0.0
  0
LINE
  5
136
330
1F
100
AcDbEntity
  8
0
  6
DASHED2
 62
     9
100
AcDbLine
 10
22.88856495835771
 20
-2.880099746830576
 30
0.0
 11
22.78856495835771
 21
-2.980099746830577
 31
0.0
  0
LINE
  5
137
330
1F
100
AcDbEntity
  8
0
  6
DASHED2
 62
     9
100
AcDbLine
 10
24.48856495835771
 20
-5.145099746830576
 30
0.0
 11
22.88856495835771
 21
-5.145099746830576
 31
0.0
  0
LINE
  5
138
330
1F
100
AcDbEntity
  8
0
  6
DASHED2
 62
     9
100
AcDbLine
 10
22.78856495835771
 20
-4.807599746830578
 30
0.0
 11
24.48856495835771
 21
-4.807599746830578
 31
0.0
  0
LINE
  5
139
330
1F
100
AcDbEntity
  8
0
  6
DASHED2
 62
     9
100
AcDbLine
 10
22.88856495835771
 20
-5.145099746830576
 30
0.0
 11
22.78856495835771
 21
-5.045099746830575
 31
0.0
  0
LINE
  5
13A
330
1F
100
AcDbEntity
  8
0
  6
CENTER
 62
     9
100
AcDbLine
 10
1.158564958357691
 20
-4.012599746830576
 30
0.0
 11
27.78856495835771
 21
-4.012599746830576
 31
0.0
  0
LINE
  5
13B
330
1F
100
AcDbEntity
  8
0
  6
CENTER
 62
     9
100
AcDbLine
 10
22.68856495835771
 20
-3.030099746830578
 30
0.0
 11
24.48856495835771
 21
-3.030099746830578
 31
0.0
  0
LINE
  5
13C
330
1F
100
AcDbEntity
  8
0
  6
CENTER
 62
     9
100
AcDbLine
 10
22.68856495835771
 20
-4.995099746830574
 30
0.0
 11
24.48856495835771
 21
-4.995099746830574
 31
0.0
  0
LINE
  5
13D
330
1F
100
AcDbEntity
  8
0
  6
CONTINUOUS
 62
     3
100
AcDbLine
 10
26.78856495835771
 20
-7.9
 30
0.0
 11
26.78856495835771
 21
-0.0999999999999996
 31
0.0
  0
LINE
  5
13E
330
1F
100
AcDbEntity
  8
0
  6
CENTER
 62
     9
100
AcDbLine
 10
-22.8414350416423
 20
-4.012599746830576
 30
0.0
 11
-32.82883504164231
 21
-4.012599746830576
 31
0.0
  0
LINE
  5
13F
330
1F
100
AcDbEntity
  8
0
  6
CENTER
 62
     9
100
AcDbLine
 10
-27.83513504164231
 20
0.9811002531694246
 30
0.0
 11
-27.83513504164231
 21
-9.006299746830576
 31
0.0
  0
INSERT
  5
140
330
1F
100
AcDbEntity
  8
0
  6
CONTINUOUS
100
AcDbBlockReference
  2
DA_IMAGEDIMGROUP_1
 10
0.0
 20
0.0
 30
0.0
  0
INSERT
  5
141
330
1F
100
AcDbEntity
  8
0
  6
CONTINUOUS
100
AcDbBlockReference
  2
DA_IMAGEDIMGROUP_2
 10
0.0
 20
0.0
 30
0.0
  0
INSERT
  5
142
330
1F
100
AcDbEntity
  8
0
  6
CONTINUOUS
100
AcDbBlockReference
  2
DA_IMAGEDIMGROUP_3
 10
0.0
 20
0.0
 30
0.0
  0
INSERT
  5
143
330
1F
100
AcDbEntity
  8
0
  6
CONTINUOUS
100
AcDbBlockReference
  2
DA_IMAGEDIMGROUP_4
 10
0.0
 20
0.0
 30
0.0
  0
INSERT
  5
144
330
1F
100
AcDbEntity
  8
0
  6
CONTINUOUS
100
AcDbBlockReference
  2
DA_IMAGEDIMGROUP_5
 10
0.0
 20
0.0
 30
0.0
  0
INSERT
  5
145
330
1F
100
AcDbEntity
  8
0
  6
CONTINUOUS
100
AcDbBlockReference
  2
DA_IMAGEDIMGROUP_6
 10
0.0
 20
0.0
 30
0.0
  0
INSERT
  5
146
330
1F
100
AcDbEntity
  8
0
  6
CONTINUOUS
100
AcDbBlockReference
  2
DA_IMAGEDIMGROUP_7
 10
0.0
 20
0.0
 30
0.0
  0
INSERT
  5
147
330
1F
100
AcDbEntity
  8
0
  6
CONTINUOUS
100
AcDbBlockReference
  2
DA_IMAGEDIMGROUP_8
 10
0.0
 20
0.0
 30
0.0
  0
INSERT
  5
148
330
1F
100
AcDbEntity
  8
0
  6
CONTINUOUS
100
AcDbBlockReference
  2
DA_IMAGEDIMGROUP_9
 10
0.0
 20
0.0
 30
0.0
  0
INSERT
  5
149
330
1F
100
AcDbEntity
  8
0
  6
CONTINUOUS
100
AcDbBlockReference
  2
DA_IMAGEDIMGROUP_10
 10
0.0
 20
0.0
 30
0.0
  0
INSERT
  5
14A
330
1F
100
AcDbEntity
  8
0
  6
CONTINUOUS
100
AcDbBlockReference
  2
DA_IMAGEDIMGROUP_11
 10
0.0
 20
0.0
 30
0.0
  0
INSERT
  5
14B
330
1F
100
AcDbEntity
  8
0
  6
CONTINUOUS
100
AcDbBlockReference
  2
DA_IMAGEDIMGROUP_12
 10
0.0
 20
0.0
 30
0.0
  0
INSERT
  5
14C
330
1F
100
AcDbEntity
  8
0
  6
CONTINUOUS
100
AcDbBlockReference
  2
DA_IMAGEDIMGROUP_13
 10
0.0
 20
0.0
 30
0.0
  0
INSERT
  5
14D
330
1F
100
AcDbEntity
  8
0
  6
CONTINUOUS
100
AcDbBlockReference
  2
DC_GROUP_1
 10
0.0
 20
0.0
 30
0.0
  0
INSERT
  5
14E
330
1F
100
AcDbEntity
  8
0
  6
CONTINUOUS
100
AcDbBlockReference
  2
DC_GROUP_2
 10
0.0
 20
0.0
 30
0.0
  0
TEXT
  5
14F
330
1F
100
AcDbEntity
  8
0
 62
     7
100
AcDbText
 10
14.29300995835771
 20
-22.99999999999999
 30
0.0
 40
2.0
  1
（ＰＩＮＩＯＮ　ＰＯＳＩＴＩＯＮ）
 41
0.6666666666666667
  7
FDASTYLE0
 72
     5
 11
41.49300995835771
 21
-22.99999999999999
 31
0.0
100
AcDbText
  0
VIEWPORT
  5
47
330
1B
100
AcDbEntity
 67
     1
  8
0
100
AcDbViewport
 10
2.065420791691032
 20
-1.249999999999996
 30
0.0
 40
209.365535
 41
130.4999999999999
 68
     1
 69
     1
1001
ACAD
1000
MVIEW
1002
{
1070
    16
1010
0.0
1020
0.0
1030
0.0
1010
0.0
1020
0.0
1030
1.0
1040
0.0
1040
130.4999999999999
1040
2.065420791691032
1040
-1.249999999999996
1040
50.0
1040
0.0
1040
0.0
1070
     0
1070
   100
1070
     0
1070
     1
1070
     0
1070
     0
1070
     0
1070
     0
1040
0.0
1040
0.0
1040
0.0
1040
0.5
1040
0.5
1040
0.0
1040
0.0
1070
     0
1002
{
1002
}
1002
}
  0
ENDSEC
  0
SECTION
  2
OBJECTS
  0
DICTIONARY
  5
C
330
0
100
AcDbDictionary
  3
ACAD_GROUP
350
D
  3
ACAD_LAYOUT
350
1A
  3
ACAD_MLINESTYLE
350
17
  3
ACAD_PLOTSETTINGS
350
19
  3
ACDBHEADERROUNDTRIPXREC
350
150
  0
DICTIONARY
  5
D
102
{ACAD_REACTORS
330
C
102
}
330
C
100
AcDbDictionary
  0
DICTIONARY
  5
1A
102
{ACAD_REACTORS
330
C
102
}
330
C
100
AcDbDictionary
  0
DICTIONARY
  5
17
102
{ACAD_REACTORS
330
C
102
}
330
C
100
AcDbDictionary
  3
STANDARD
350
18
  0
DICTIONARY
  5
19
102
{ACAD_REACTORS
330
C
102
}
330
C
100
AcDbDictionary
  0
DICTIONARY
  5
150
102
{ACAD_REACTORS
330
C
102
}
330
C
100
AcDbDictionary
  3
CEPSNTYPE
350
159
  3
DIMSTYLEDATA
350
16F
  3
FINGERPRINTGUID
350
15A
  3
HYPERLINKBASE
350
153
  3
INSUNITS
350
158
  3
LAYOUTDICT
350
155
  3
LWETCUNION
350
157
  3
PLOTSETDICT
350
156
  3
PSVPSCALE
350
15C
  3
PUCSBASE
350
15F
  3
PUCSORGBACK
350
165
  3
PUCSORGBOTTOM
350
161
  3
PUCSORGFRONT
350
164
  3
PUCSORGLEFT
350
162
  3
PUCSORGRIGHT
350
163
  3
PUCSORGTOP
350
160
  3
PUCSORTHOREF
350
15D
  3
PUCSORTHOVIEW
350
15E
  3
STYLESHEET
350
154
  3
TSTACKALIGN
350
151
  3
TSTACKSIZE
350
152
  3
UCSBASE
350
168
  3
UCSORGBACK
350
16E
  3
UCSORGBOTTOM
350
16A
  3
UCSORGFRONT
350
16D
  3
UCSORGLEFT
350
16B
  3
UCSORGRIGHT
350
16C
  3
UCSORGTOP
350
169
  3
UCSORTHOREF
350
166
  3
UCSORTHOVIEW
350
167
  3
VERSIONGUID
350
15B
  0
MLINESTYLE
  5
18
102
{ACAD_REACTORS
330
17
102
}
330
17
100
AcDbMlineStyle
  2
Standard
 70
     0
  3

 62
   256
 51
90.0
 52
90.0
 71
     2
 49
0.5
 62
   256
  6
BYLAYER
 49
-0.5
 62
   256
  6
BYLAYER
  0
XRECORD
  5
159
102
{ACAD_REACTORS
330
150
102
}
330
150
100
AcDbXrecord
 90
        0
  0
XRECORD
  5
16F
102
{ACAD_REACTORS
330
150
102
}
330
150
100
AcDbXrecord
1000
DSTYLE
1002
{
1070
   171
 70
     2
1070
   143
 40
25.4
1070
   274
 70
     2
1070
    41
 40
1.25
1070
   141
 40
0.09
1070
   271
 70
     4
1070
    43
 40
0.38
1070
    44
 40
0.18
1070
   278
 70
    46
1070
    42
 40
0.0625
1070
   147
 40
0.09
1070
    77
 70
     3
1070
   272
 70
     4
1070
    73
 70
     1
1070
   172
 70
     0
1070
    74
 70
     1
1070
   283
 70
     1
1070
   340
340
11
1070
   140
 40
0.18
1070
   284
 70
     0
1070
    78
 70
     0
1002
}
  0
XRECORD
  5
15A
102
{ACAD_REACTORS
330
150
102
}
330
150
100
AcDbXrecord
  1
{27FE74AC-1631-48A9-91DD-3B653FFDD2BC}
  0
XRECORD
  5
153
102
{ACAD_REACTORS
330
150
102
}
330
150
100
AcDbXrecord
  1

  0
XRECORD
  5
158
102
{ACAD_REACTORS
330
150
102
}
330
150
100
AcDbXrecord
 90
        4
  0
XRECORD
  5
155
102
{ACAD_REACTORS
330
150
102
}
330
150
100
AcDbXrecord
340
1A
  0
XRECORD
  5
157
102
{ACAD_REACTORS
330
150
102
}
330
150
100
AcDbXrecord
 90
    10781
  0
XRECORD
  5
156
102
{ACAD_REACTORS
330
150
102
}
330
150
100
AcDbXrecord
340
19
  0
XRECORD
  5
15C
102
{ACAD_REACTORS
330
150
102
}
330
150
100
AcDbXrecord
 40
0.0
  0
XRECORD
  5
15F
102
{ACAD_REACTORS
330
150
102
}
330
150
100
AcDbXrecord
340
0
  0
XRECORD
  5
165
102
{ACAD_REACTORS
330
150
102
}
330
150
100
AcDbXrecord
 10
0.0
 20
0.0
 30
0.0
  0
XRECORD
  5
161
102
{ACAD_REACTORS
330
150
102
}
330
150
100
AcDbXrecord
 10
0.0
 20
0.0
 30
0.0
  0
XRECORD
  5
164
102
{ACAD_REACTORS
330
150
102
}
330
150
100
AcDbXrecord
 10
0.0
 20
0.0
 30
0.0
  0
XRECORD
  5
162
102
{ACAD_REACTORS
330
150
102
}
330
150
100
AcDbXrecord
 10
0.0
 20
0.0
 30
0.0
  0
XRECORD
  5
163
102
{ACAD_REACTORS
330
150
102
}
330
150
100
AcDbXrecord
 10
0.0
 20
0.0
 30
0.0
  0
XRECORD
  5
160
102
{ACAD_REACTORS
330
150
102
}
330
150
100
AcDbXrecord
 10
0.0
 20
0.0
 30
0.0
  0
XRECORD
  5
15D
102
{ACAD_REACTORS
330
150
102
}
330
150
100
AcDbXrecord
340
0
  0
XRECORD
  5
15E
102
{ACAD_REACTORS
330
150
102
}
330
150
100
AcDbXrecord
 70
     0
  0
XRECORD
  5
154
102
{ACAD_REACTORS
330
150
102
}
330
150
100
AcDbXrecord
  1

  0
XRECORD
  5
151
102
{ACAD_REACTORS
330
150
102
}
330
150
100
AcDbXrecord
 90
        1
  0
XRECORD
  5
152
102
{ACAD_REACTORS
330
150
102
}
330
150
100
AcDbXrecord
 90
       70
  0
XRECORD
  5
168
102
{ACAD_REACTORS
330
150
102
}
330
150
100
AcDbXrecord
340
0
  0
XRECORD
  5
16E
102
{ACAD_REACTORS
330
150
102
}
330
150
100
AcDbXrecord
 10
0.0
 20
0.0
 30
0.0
  0
XRECORD
  5
16A
102
{ACAD_REACTORS
330
150
102
}
330
150
100
AcDbXrecord
 10
0.0
 20
0.0
 30
0.0
  0
XRECORD
  5
16D
102
{ACAD_REACTORS
330
150
102
}
330
150
100
AcDbXrecord
 10
0.0
 20
0.0
 30
0.0
  0
XRECORD
  5
16B
102
{ACAD_REACTORS
330
150
102
}
330
150
100
AcDbXrecord
 10
0.0
 20
0.0
 30
0.0
  0
XRECORD
  5
16C
102
{ACAD_REACTORS
330
150
102
}
330
150
100
AcDbXrecord
 10
0.0
 20
0.0
 30
0.0
  0
XRECORD
  5
169
102
{ACAD_REACTORS
330
150
102
}
330
150
100
AcDbXrecord
 10
0.0
 20
0.0
 30
0.0
  0
XRECORD
  5
166
102
{ACAD_REACTORS
330
150
102
}
330
150
100
AcDbXrecord
340
0
  0
XRECORD
  5
167
102
{ACAD_REACTORS
330
150
102
}
330
150
100
AcDbXrecord
 70
     0
  0
XRECORD
  5
15B
102
{ACAD_REACTORS
330
150
102
}
330
150
100
AcDbXrecord
  1
{FAEB1C32-E019-11D5-929B-00C0DF256EC4}
  0
ENDSEC
  0
EOF
